  0
SECTION
  2
HEADER
  9
$ACADVER
  1
AC1015
  9
$ACADMAINTVER
 70
     6
  9
$DWGCODEPAGE
  3
ANSI_1252
  9
$INSBASE
 10
0.0
 20
0.0
 30
0.0
  9
$EXTMIN
 10
-26.1822644902
 20
-12.7470605723
 30
0.0
  9
$EXTMAX
 10
0.0
 20
14.6
 30
0.0
  9
$LIMMIN
 10
0.0
 20
0.0
  9
$LIMMAX
 10
420.0
 20
297.0
  9
$ORTHOMODE
 70
     0
  9
$REGENMODE
 70
     1
  9
$FILLMODE
 70
     1
  9
$QTEXTMODE
 70
     0
  9
$MIRRTEXT
 70
     1
  9
$LTSCALE
 40
1.0
  9
$ATTMODE
 70
     1
  9
$TEXTSIZE
 40
3.5
  9
$TRACEWID
 40
1.0
  9
$TEXTSTYLE
  7
Standard
  9
$CLAYER
  8
0
  9
$CELTYPE
  6
ByLayer
  9
$CECOLOR
 62
   256
  9
$CELTSCALE
 40
1.0
  9
$DISPSILH
 70
     0
  9
$DIMSCALE
 40
1.0
  9
$DIMASZ
 40
3.302
  9
$DIMEXO
 40
1.0
  9
$DIMDLI
 40
3.75
  9
$DIMRND
 40
0.0
  9
$DIMDLE
 40
0.0
  9
$DIMEXE
 40
1.0
  9
$DIMTP
 40
0.0
  9
$DIMTM
 40
0.0
  9
$DIMTXT
 40
3.5
  9
$DIMCEN
 40
2.5
  9
$DIMTSZ
 40
0.0
  9
$DIMTOL
 70
     0
  9
$DIMLIM
 70
     0
  9
$DIMTIH
 70
     1
  9
$DIMTOH
 70
     1
  9
$DIMSE1
 70
     0
  9
$DIMSE2
 70
     0
  9
$DIMTAD
 70
     1
  9
$DIMZIN
 70
     1
  9
$DIMBLK
  1

  9
$DIMASO
 70
     1
  9
$DIMSHO
 70
     1
  9
$DIMPOST
  1

  9
$DIMAPOST
  1

  9
$DIMALT
 70
     0
  9
$DIMALTD
 70
     3
  9
$DIMALTF
 40
0.0393700787
  9
$DIMLFAC
 40
1.0
  9
$DIMTOFL
 70
     1
  9
$DIMTVP
 40
0.0
  9
$DIMTIX
 70
     0
  9
$DIMSOXD
 70
     0
  9
$DIMSAH
 70
     0
  9
$DIMBLK1
  1

  9
$DIMBLK2
  1

  9
$DIMSTYLE
  2
ISO-25
  9
$DIMCLRD
 70
     0
  9
$DIMCLRE
 70
     0
  9
$DIMCLRT
 70
     0
  9
$DIMTFAC
 40
1.0
  9
$DIMGAP
 40
1.524
  9
$DIMJUST
 70
     0
  9
$DIMSD1
 70
     0
  9
$DIMSD2
 70
     0
  9
$DIMTOLJ
 70
     0
  9
$DIMTZIN
 70
     1
  9
$DIMALTZ
 70
     0
  9
$DIMALTTZ
 70
     0
  9
$DIMUPT
 70
     0
  9
$DIMDEC
 70
     2
  9
$DIMTDEC
 70
     2
  9
$DIMALTU
 70
     2
  9
$DIMALTTD
 70
     3
  9
$DIMTXSTY
  7
Standard
  9
$DIMAUNIT
 70
     0
  9
$DIMADEC
 70
     2
  9
$DIMALTRND
 40
0.0
  9
$DIMAZIN
 70
     0
  9
$DIMDSEP
 70
    44
  9
$DIMATFIT
 70
     3
  9
$DIMFRAC
 70
     0
  9
$DIMLDRBLK
  1

  9
$DIMLUNIT
 70
     2
  9
$DIMLWD
 70
    -2
  9
$DIMLWE
 70
    -2
  9
$DIMTMOVE
 70
     0
  9
$LUNITS
 70
     2
  9
$LUPREC
 70
     2
  9
$SKETCHINC
 40
1.0
  9
$FILLETRAD
 40
10.0
  9
$AUNITS
 70
     0
  9
$AUPREC
 70
     2
  9
$MENU
  1
.
  9
$ELEVATION
 40
0.0
  9
$PELEVATION
 40
0.0
  9
$THICKNESS
 40
0.0
  9
$LIMCHECK
 70
     0
  9
$CHAMFERA
 40
0.0
  9
$CHAMFERB
 40
0.0
  9
$CHAMFERC
 40
0.0
  9
$CHAMFERD
 40
0.0
  9
$SKPOLY
 70
     0
  9
$TDCREATE
 40
2458862.402657986
  9
$TDUCREATE
 40
2458862.402657986
  9
$TDUPDATE
 40
2458862.402678738
  9
$TDUUPDATE
 40
2458862.402678738
  9
$TDINDWG
 40
0.0000000116
  9
$TDUSRTIMER
 40
0.0000000116
  9
$USRTIMER
 70
     1
  9
$ANGBASE
 50
0.0
  9
$ANGDIR
 70
     0
  9
$PDMODE
 70
     0
  9
$PDSIZE
 40
-1.0
  9
$PLINEWID
 40
0.0
  9
$SPLFRAME
 70
     0
  9
$SPLINETYPE
 70
     6
  9
$SPLINESEGS
 70
     8
  9
$HANDSEED
  5
36E
  9
$SURFTAB1
 70
     6
  9
$SURFTAB2
 70
     6
  9
$SURFTYPE
 70
     6
  9
$SURFU
 70
     6
  9
$SURFV
 70
     6
  9
$UCSBASE
  2

  9
$UCSNAME
  2

  9
$UCSORG
 10
0.0
 20
0.0
 30
0.0
  9
$UCSXDIR
 10
1.0
 20
0.0
 30
0.0
  9
$UCSYDIR
 10
0.0
 20
1.0
 30
0.0
  9
$UCSORTHOREF
  2

  9
$UCSORTHOVIEW
 70
     0
  9
$UCSORGTOP
 10
0.0
 20
0.0
 30
0.0
  9
$UCSORGBOTTOM
 10
0.0
 20
0.0
 30
0.0
  9
$UCSORGLEFT
 10
0.0
 20
0.0
 30
0.0
  9
$UCSORGRIGHT
 10
0.0
 20
0.0
 30
0.0
  9
$UCSORGFRONT
 10
0.0
 20
0.0
 30
0.0
  9
$UCSORGBACK
 10
0.0
 20
0.0
 30
0.0
  9
$PUCSBASE
  2

  9
$PUCSNAME
  2

  9
$PUCSORG
 10
0.0
 20
0.0
 30
0.0
  9
$PUCSXDIR
 10
1.0
 20
0.0
 30
0.0
  9
$PUCSYDIR
 10
0.0
 20
1.0
 30
0.0
  9
$PUCSORTHOREF
  2

  9
$PUCSORTHOVIEW
 70
     0
  9
$PUCSORGTOP
 10
0.0
 20
0.0
 30
0.0
  9
$PUCSORGBOTTOM
 10
0.0
 20
0.0
 30
0.0
  9
$PUCSORGLEFT
 10
0.0
 20
0.0
 30
0.0
  9
$PUCSORGRIGHT
 10
0.0
 20
0.0
 30
0.0
  9
$PUCSORGFRONT
 10
0.0
 20
0.0
 30
0.0
  9
$PUCSORGBACK
 10
0.0
 20
0.0
 30
0.0
  9
$USERI1
 70
     0
  9
$USERI2
 70
     0
  9
$USERI3
 70
     0
  9
$USERI4
 70
     0
  9
$USERI5
 70
     0
  9
$USERR1
 40
0.0
  9
$USERR2
 40
0.0
  9
$USERR3
 40
0.0
  9
$USERR4
 40
0.0
  9
$USERR5
 40
0.0
  9
$WORLDVIEW
 70
     1
  9
$SHADEDGE
 70
     3
  9
$SHADEDIF
 70
    70
  9
$TILEMODE
 70
     1
  9
$MAXACTVP
 70
    64
  9
$PINSBASE
 10
0.0
 20
0.0
 30
0.0
  9
$PLIMCHECK
 70
     0
  9
$PEXTMIN
 10
-189.9588068676
 20
-26.1883842689
 30
0.0
  9
$PEXTMAX
 10
189.9587962153
 20
0.0
 30
0.0
  9
$PLIMMIN
 10
-219.524379092
 20
-37.275473853
  9
$PLIMMAX
 10
219.5243684396
 20
273.1630345027
  9
$UNITMODE
 70
     0
  9
$VISRETAIN
 70
     1
  9
$PLINEGEN
 70
     0
  9
$PSLTSCALE
 70
     1
  9
$TREEDEPTH
 70
  3020
  9
$CMLSTYLE
  2
Standard
  9
$CMLJUST
 70
     0
  9
$CMLSCALE
 40
20.0
  9
$PROXYGRAPHICS
 70
     1
  9
$MEASUREMENT
 70
     1
  9
$CELWEIGHT
370
    -1
  9
$ENDCAPS
280
     0
  9
$JOINSTYLE
280
     0
  9
$LWDISPLAY
290
     1
  9
$INSUNITS
 70
     4
  9
$HYPERLINKBASE
  1

  9
$STYLESHEET
  1

  9
$XEDIT
290
     1
  9
$CEPSNTYPE
380
     0
  9
$PSTYLEMODE
290
     1
  9
$FINGERPRINTGUID
  2
{e6d41dad-7bfd-4aae-8461-b516ed3d9423}
  9
$VERSIONGUID
  2
{FAEB1C32-E019-11D5-929B-00C0DF256EC4}
  9
$EXTNAMES
290
     1
  9
$PSVPSCALE
 40
0.0
  9
$OLESTARTUP
290
     0
  0
ENDSEC
  0
SECTION
  2
CLASSES
  0
CLASS
  1
ACDBDICTIONARYWDFLT
  2
AcDbDictionaryWithDefault
  3
ObjectDBX Classes
 90
        0
280
     0
281
     0
  0
CLASS
  1
VISUALSTYLE
  2
AcDbVisualStyle
  3
ObjectDBX Classes
 90
     4095
280
     0
281
     0
  0
CLASS
  1
MATERIAL
  2
AcDbMaterial
  3
ObjectDBX Classes
 90
     1153
280
     0
281
     0
  0
CLASS
  1
SCALE
  2
AcDbScale
  3
ObjectDBX Classes
 90
     1153
280
     0
281
     0
  0
CLASS
  1
TABLESTYLE
  2
AcDbTableStyle
  3
ObjectDBX Classes
 90
     4095
280
     0
281
     0
  0
CLASS
  1
MLEADERSTYLE
  2
AcDbMLeaderStyle
  3
ACDB_MLEADERSTYLE_CLASS
 90
     4095
280
     0
281
     0
  0
CLASS
  1
SUN
  2
AcDbSun
  3
SCENEOE
 90
     1153
280
     0
281
     0
  0
CLASS
  1
ACDBPLACEHOLDER
  2
AcDbPlaceHolder
  3
ObjectDBX Classes
 90
        0
280
     0
281
     0
  0
CLASS
  1
LAYOUT
  2
AcDbLayout
  3
ObjectDBX Classes
 90
        0
280
     0
281
     0
  0
ENDSEC
  0
SECTION
  2
TABLES
  0
TABLE
  2
VPORT
  5
8
330
0
100
AcDbSymbolTable
 70
     1
  0
VPORT
  5
29
330
8
100
AcDbSymbolTableRecord
100
AcDbViewportTableRecord
  2
*Active
 70
     0
 10
0.0
 20
0.0
 11
1.0
 21
1.0
 12
-13.0911322451
 22
0.9264697138
 13
0.0
 23
0.0
 14
10.0
 24
10.0
 15
10.0
 25
10.0
 16
0.0
 26
0.0
 36
1.0
 17
0.0
 27
0.0
 37
0.0
 40
27.8940017838
 41
0.9574069001
 42
50.0
 43
0.0
 44
0.0
 50
0.0
 51
0.0
 71
     0
 72
   100
 73
     1
 74
     3
 75
     0
 76
     0
 77
     0
 78
     0
281
     0
 65
     1
110
0.0
120
0.0
130
0.0
111
1.0
121
0.0
131
0.0
112
0.0
122
1.0
132
0.0
 79
     0
146
0.0
  0
ENDTAB
  0
TABLE
  2
LTYPE
  5
5
330
0
100
AcDbSymbolTable
 70
     6
  0
LTYPE
  5
14
330
5
100
AcDbSymbolTableRecord
100
AcDbLinetypeTableRecord
  2
ByBlock
 70
     0
  3

 72
    65
 73
     0
 40
0.0
  0
LTYPE
  5
15
330
5
100
AcDbSymbolTableRecord
100
AcDbLinetypeTableRecord
  2
ByLayer
 70
     0
  3

 72
    65
 73
     0
 40
0.0
  0
LTYPE
  5
16
330
5
100
AcDbSymbolTableRecord
100
AcDbLinetypeTableRecord
  2
Continuous
 70
     0
  3
Solid line
 72
    65
 73
     0
 40
0.0
  0
LTYPE
  5
6E
330
5
100
AcDbSymbolTableRecord
100
AcDbLinetypeTableRecord
  2
HIDDEN
 70
     0
  3
Hidden __ __ __ __ __ __ __ __ __ __ __ __ __ __
 72
    65
 73
     2
 40
1.905
 49
1.27
 74
     0
 49
-0.635
 74
     0
  0
LTYPE
  5
6F
330
5
100
AcDbSymbolTableRecord
100
AcDbLinetypeTableRecord
  2
PHANTOM
 70
     0
  3
Phantom ______  __  __  ______  __  __  ______
 72
    65
 73
     6
 40
12.7
 49
6.35
 74
     0
 49
-1.27
 74
     0
 49
1.27
 74
     0
 49
-1.27
 74
     0
 49
1.27
 74
     0
 49
-1.27
 74
     0
  0
LTYPE
  5
70
330
5
100
AcDbSymbolTableRecord
100
AcDbLinetypeTableRecord
  2
CENTER
 70
     0
  3
Center ____ _ ____ _ ____ _ ____ _ ____ _ ____
 72
    65
 73
     4
 40
10.16
 49
6.35
 74
     0
 49
-1.27
 74
     0
 49
1.27
 74
     0
 49
-1.27
 74
     0
  0
LTYPE
  5
71
330
5
100
AcDbSymbolTableRecord
100
AcDbLinetypeTableRecord
  2
CENTERX2
 70
     0
  3
Center (2x) ________  __  ________  __  _____
 72
    65
 73
     4
 40
20.32
 49
12.7
 74
     0
 49
-2.54
 74
     0
 49
2.54
 74
     0
 49
-2.54
 74
     0
  0
LTYPE
  5
72
330
5
100
AcDbSymbolTableRecord
100
AcDbLinetypeTableRecord
  2
DOT2
 70
     0
  3
Dot (.5x) ........................................
 72
    65
 73
     2
 40
0.635
 49
0.0
 74
     0
 49
-0.635
 74
     0
  0
ENDTAB
  0
TABLE
  2
LAYER
  5
2
330
0
100
AcDbSymbolTable
 70
     1
  0
LAYER
  5
10
330
2
100
AcDbSymbolTableRecord
100
AcDbLayerTableRecord
  2
0
 70
     0
 62
     7
  6
Continuous
370
    -3
390
F
  0
ENDTAB
  0
TABLE
  2
STYLE
  5
3
330
0
100
AcDbSymbolTable
 70
     1
  0
STYLE
  5
11
330
3
100
AcDbSymbolTableRecord
100
AcDbTextStyleTableRecord
  2
Standard
 70
     0
 40
0.0
 41
1.0
 50
0.0
 71
     0
 42
3.5
  3
txt
  4

  0
ENDTAB
  0
TABLE
  2
VIEW
  5
6
330
0
100
AcDbSymbolTable
 70
     0
  0
ENDTAB
  0
TABLE
  2
UCS
  5
7
330
0
100
AcDbSymbolTable
 70
     0
  0
ENDTAB
  0
TABLE
  2
APPID
  5
9
330
0
100
AcDbSymbolTable
 70
     1
  0
APPID
  5
12
330
9
100
AcDbSymbolTableRecord
100
AcDbRegAppTableRecord
  2
ACAD
 70
     0
  0
ENDTAB
  0
TABLE
  2
DIMSTYLE
  5
A
330
0
100
AcDbSymbolTable
 70
     1
100
AcDbDimStyleTable
  0
DIMSTYLE
105
27
330
A
100
AcDbSymbolTableRecord
100
AcDbDimStyleTableRecord
  2
ISO-25
 70
     0
 41
2.5
 42
0.625
 43
3.75
 44
1.25
 73
     0
 74
     0
 77
     1
 78
     8
140
2.5
141
2.5
143
0.0393700787
147
0.625
171
     3
172
     1
178
     0
271
     2
272
     2
274
     3
278
    44
283
     0
284
     8
340
11
  0
ENDTAB
  0
TABLE
  2
BLOCK_RECORD
  5
1
330
0
100
AcDbSymbolTable
 70
     7
  0
BLOCK_RECORD
  5
1F
330
1
100
AcDbSymbolTableRecord
100
AcDbBlockTableRecord
  2
*Model_Space
340
22
  0
BLOCK_RECORD
  5
1B
330
1
100
AcDbSymbolTableRecord
100
AcDbBlockTableRecord
  2
*Paper_Space
340
1E
  0
BLOCK_RECORD
  5
23
330
1
100
AcDbSymbolTableRecord
100
AcDbBlockTableRecord
  2
*Paper_Space0
340
26
  0
BLOCK_RECORD
  5
102
330
1
100
AcDbSymbolTableRecord
100
AcDbBlockTableRecord
  2
*Paper_Space1
340
103
  0
BLOCK_RECORD
  5
17E
330
1
100
AcDbSymbolTableRecord
100
AcDbBlockTableRecord
  2
*Paper_Space2
340
17F
  0
BLOCK_RECORD
  5
1B8
330
1
100
AcDbSymbolTableRecord
100
AcDbBlockTableRecord
  2
*Paper_Space3
340
1B9
  0
BLOCK_RECORD
  5
230
330
1
100
AcDbSymbolTableRecord
100
AcDbBlockTableRecord
  2
*Paper_Space4
340
231
  0
BLOCK_RECORD
  5
282
330
1
100
AcDbSymbolTableRecord
100
AcDbBlockTableRecord
  2
*Paper_Space5
340
283
  0
BLOCK_RECORD
  5
2ED
330
1
100
AcDbSymbolTableRecord
100
AcDbBlockTableRecord
  2
*Paper_Space6
340
2EE
  0
ENDTAB
  0
ENDSEC
  0
SECTION
  2
BLOCKS
  0
BLOCK
  5
20
330
1F
100
AcDbEntity
  8
0
100
AcDbBlockBegin
  2
*Model_Space
 70
     0
 10
0.0
 20
0.0
 30
0.0
  3
*Model_Space
  1

  0
ENDBLK
  5
21
330
1F
100
AcDbEntity
  8
0
100
AcDbBlockEnd
  0
BLOCK
  5
1C
330
1B
100
AcDbEntity
 67
     1
  8
0
100
AcDbBlockBegin
  2
*Paper_Space
 70
     0
 10
0.0
 20
0.0
 30
0.0
  3
*Paper_Space
  1

  0
ENDBLK
  5
1D
330
1B
100
AcDbEntity
 67
     1
  8
0
100
AcDbBlockEnd
  0
BLOCK
  5
24
330
23
100
AcDbEntity
  8
0
100
AcDbBlockBegin
  2
*Paper_Space0
 70
     0
 10
0.0
 20
0.0
 30
0.0
  3
*Paper_Space0
  1

  0
SPLINE
  5
CE
330
23
100
AcDbEntity
  8
0
  6
Continuous
 62
     7
370
    25
100
AcDbSpline
210
0.0
220
0.0
230
1.0
 70
     8
 71
     3
 72
    12
 73
     8
 74
     0
 42
0.000000001
 43
0.00000001
 40
0.0
 40
0.0
 40
0.0
 40
0.0
 40
0.2500000000000327
 40
0.2500000000000327
 40
0.5000000000000654
 40
0.5000000000000654
 40
1.0
 40
1.0
 40
1.0
 40
1.0
 10
185.6000585511047
 20
0.0
 30
0.0
 10
185.6322268897589
 20
-0.0000000000000113
 30
0.0
 10
185.6610277991601
 20
0.0170835356706534
 30
0.0
 10
185.7102045180941
 20
0.0573071591295378
 30
0.0
 10
185.730837919334
 20
0.0810272032124386
 30
0.0
 10
185.7872583149285
 20
0.1571867361715751
 30
0.0
 10
185.8162318472239
 20
0.2132770908637562
 30
0.0
 10
185.8399543518194
 20
0.2718490011180915
 30
0.0
  0
SPLINE
  5
CF
330
23
100
AcDbEntity
  8
0
  6
Continuous
 62
     7
370
    25
100
AcDbSpline
210
0.0
220
0.0
230
1.0
 70
     8
 71
     3
 72
    12
 73
     8
 74
     0
 42
0.000000001
 43
0.00000001
 40
0.0
 40
0.0
 40
0.0
 40
0.0
 40
0.4999999999999347
 40
0.4999999999999347
 40
0.7499999999999674
 40
0.7499999999999674
 40
1.0
 40
1.0
 40
1.0
 40
1.0
 10
-185.8399543518162
 20
0.2718490011047075
 30
0.0
 10
-185.8162229323394
 20
0.213255079615211
 30
0.0
 10
-185.7874366261692
 20
0.1574854704955845
 30
0.0
 10
-185.7310110294738
 20
0.081232059469558
 30
0.0
 10
-185.7099242475029
 20
0.0570459577064698
 30
0.0
 10
-185.6609903853225
 20
0.0170850983107515
 30
0.0
 10
-185.6322919134968
 20
-0.000000000001059
 30
0.0
 10
-185.6000585511034
 20
0.0000000000031732
 30
0.0
  0
SPLINE
  5
D3
330
23
100
AcDbEntity
  8
0
  6
Continuous
 62
     7
370
    25
100
AcDbSpline
210
0.0
220
0.0
230
1.0
 70
     8
 71
     3
 72
    10
 73
     6
 74
     0
 42
0.000000001
 43
0.00000001
 40
0.0
 40
0.0
 40
0.0
 40
0.0
 40
0.5
 40
0.5
 40
1.0
 40
1.0
 40
1.0
 40
1.0
 10
-189.7561484150619
 20
14.6
 30
0.0
 10
-189.8155840664931
 20
14.6
 30
0.0
 10
-189.8736543842879
 20
14.57308380224895
 30
0.0
 10
-189.9495154865062
 20
14.48376472356067
 30
0.0
 10
-189.9665592887139
 20
14.42161346407491
 30
0.0
 10
-189.9554847021401
 20
14.36319446847651
 30
0.0
  0
SPLINE
  5
D5
330
23
100
AcDbEntity
  8
0
  6
Continuous
 62
     7
370
    25
100
AcDbSpline
210
0.0
220
0.0
230
1.0
 70
     8
 71
     3
 72
    10
 73
     6
 74
     0
 42
0.000000001
 43
0.00000001
 40
0.0
 40
0.0
 40
0.0
 40
0.0
 40
0.5
 40
0.5
 40
1.0
 40
1.0
 40
1.0
 40
1.0
 10
189.9554847021402
 20
14.36319446847651
 30
0.0
 10
189.9665546261556
 20
14.42158886884757
 30
0.0
 10
189.9496502538173
 20
14.4835174975888
 30
0.0
 10
189.873772990132
 20
14.57303241091517
 30
0.0
 10
189.8155604990052
 20
14.6000000000044
 30
0.0
 10
189.7561484150623
 20
14.60000000000451
 30
0.0
  0
CIRCLE
  5
D6
330
23
100
AcDbEntity
  8
0
  6
Continuous
 62
     7
370
    25
100
AcDbCircle
 10
-160.0
 20
6.0
 30
0.0
 40
2.499999999999972
  0
CIRCLE
  5
D7
330
23
100
AcDbEntity
  8
0
  6
Continuous
 62
     7
370
    25
100
AcDbCircle
 10
160.0
 20
6.0
 30
0.0
 40
2.499999999999972
  0
LWPOLYLINE
  5
DA
330
23
100
AcDbEntity
  8
0
  6
Continuous
 62
     7
370
    25
100
AcDbPolyline
 90
        9
 70
   128
 43
0.0
 10
168.0
 20
-7.6151952284
 10
167.99811589
 20
-7.6385430026
 10
167.9925359654
 20
-7.6559767649
 10
167.9834746595
 20
-7.6668265456
 10
167.9712801932
 20
-7.6706753939
 10
167.9564211931
 20
-7.6673754005
 10
167.9394686821
 20
-7.6570533824
 10
167.9210741357
 20
-7.640106009
 10
167.9019444462
 20
-7.6171845583
  0
LWPOLYLINE
  5
E2
330
23
100
AcDbEntity
  8
0
  6
Continuous
 62
     7
370
    25
100
AcDbPolyline
 90
        9
 70
   128
 43
0.0
 10
-167.9019444462
 20
-7.6171845583
 10
-167.9210741357
 20
-7.640106009
 10
-167.9394686821
 20
-7.6570533824
 10
-167.9564211931
 20
-7.6673754005
 10
-167.9712801932
 20
-7.6706753939
 10
-167.9834746595
 20
-7.6668265456
 10
-167.9925359654
 20
-7.6559767649
 10
-167.99811589
 20
-7.6385430026
 10
-168.0
 20
-7.6151952284
  0
LWPOLYLINE
  5
E3
330
23
100
AcDbEntity
  8
0
  6
Continuous
 62
     7
370
    25
100
AcDbPolyline
 90
        3
 70
   128
 43
0.0
 10
-168.0
 20
-7.6151952284
 10
-170.0315756946
 20
-6.7068398587
 10
-170.115699677
 20
-6.6668888354
  0
LWPOLYLINE
  5
E4
330
23
100
AcDbEntity
  8
0
  6
Continuous
 62
     7
370
    25
100
AcDbPolyline
 90
        3
 70
   128
 43
0.0
 10
-177.6940057523
 20
-2.1510624425
 10
-179.1077335805
 20
-1.0606721364
 10
-180.3696770612
 20
0.0
  0
LWPOLYLINE
  5
E5
330
23
100
AcDbEntity
  8
0
  6
Continuous
 62
     7
370
    25
100
AcDbPolyline
 90
        9
 70
   128
 43
0.0
 10
-154.1845265413
 20
-12.2503587203
 10
-154.1832814221
 20
-12.2734921097
 10
-154.179593914
 20
-12.2902909564
 10
-154.1736057258
 20
-12.3001096901
 10
-154.1655469801
 20
-12.3025709825
 10
-154.1557273701
 20
-12.2975802474
 10
-154.1445242578
 20
-12.285329276
 10
-154.1323681727
 20
-12.2662888663
 10
-154.1197262661
 20
-12.2411907305
  0
LWPOLYLINE
  5
E8
330
23
100
AcDbEntity
  8
0
  6
Continuous
 62
     7
370
    25
100
AcDbPolyline
 90
        3
 70
   128
 43
0.0
 10
168.0
 20
-7.6151952284
 10
166.3379858838
 20
-8.2968029559
 10
166.2216629463
 20
-8.3431361095
  0
LWPOLYLINE
  5
EA
330
23
100
AcDbEntity
  8
0
  6
Continuous
 62
     7
370
    25
100
AcDbPolyline
 90
        9
 70
   128
 43
0.0
 10
154.1197262661
 20
-12.2411907305
 10
154.1323681727
 20
-12.2662888663
 10
154.1445242578
 20
-12.285329276
 10
154.1557273701
 20
-12.2975802474
 10
154.1655469801
 20
-12.3025709825
 10
154.1736057258
 20
-12.3001096901
 10
154.179593914
 20
-12.2902909564
 10
154.1832814221
 20
-12.2734921097
 10
154.1845265413
 20
-12.2503587203
  0
SPLINE
  5
EB
330
23
100
AcDbEntity
  8
0
  6
Continuous
 62
     7
370
    25
100
AcDbSpline
210
0.0
220
0.0
230
1.0
 70
     8
 71
     3
 72
     9
 73
     5
 74
     0
 42
0.000000001
 43
0.00000001
 40
0.0
 40
0.0
 40
0.0
 40
0.0
 40
0.8264602779776805
 40
1.0
 40
1.0
 40
1.0
 40
1.0
 10
-154.1197262661141
 20
-12.24119073050362
 30
0.0
 10
-153.2766177020883
 20
-12.47456705982645
 30
0.0
 10
-152.2564736171375
 20
-12.75694763580997
 30
0.0
 10
-151.318847891543
 20
-12.71969595364606
 30
0.0
 10
-151.1561325837624
 20
-12.71323130707847
 30
0.0
  0
SPLINE
  5
ED
330
23
100
AcDbEntity
  8
0
  6
Continuous
 62
     7
370
    25
100
AcDbSpline
210
0.0
220
0.0
230
1.0
 70
     8
 71
     3
 72
     9
 73
     5
 74
     0
 42
0.000000001
 43
0.00000001
 40
0.0
 40
0.0
 40
0.0
 40
0.0
 40
0.8264602779776433
 40
1.0
 40
1.0
 40
1.0
 40
1.0
 10
154.1197262661141
 20
-12.24119073050363
 30
0.0
 10
153.2766177020884
 20
-12.47456705982646
 30
0.0
 10
152.2564736171375
 20
-12.75694763580998
 30
0.0
 10
151.3188478915431
 20
-12.71969595364606
 30
0.0
 10
151.1561325837624
 20
-12.71323130707847
 30
0.0
  0
LINE
  5
EF
330
23
100
AcDbEntity
  8
0
  6
Continuous
 62
     7
370
    25
100
AcDbLine
 10
-151.1561325838
 20
-12.7471834865
 30
0.0
 11
151.1561325838
 21
-12.7471834865
 31
0.0
  0
LINE
  5
F0
330
23
100
AcDbEntity
  8
0
  6
Continuous
 62
     7
370
    25
100
AcDbLine
 10
185.6000585511
 20
0.0
 30
0.0
 11
-185.6000585511
 21
0.0
 31
0.0
  0
LINE
  5
F1
330
23
100
AcDbEntity
  8
0
  6
Continuous
 62
     7
370
    25
100
AcDbLine
 10
160.7607751582
 20
3.6185674146
 30
0.0
 11
159.2392248418
 21
3.6185674146
 31
0.0
  0
LINE
  5
F2
330
23
100
AcDbEntity
  8
0
  6
Continuous
 62
     7
370
    25
100
AcDbLine
 10
-159.2392248418
 20
3.6185674146
 30
0.0
 11
-160.7607751582
 21
3.6185674146
 31
0.0
  0
LINE
  5
F3
330
23
100
AcDbEntity
  8
0
  6
Continuous
 62
     7
370
    25
100
AcDbLine
 10
189.7561484151
 20
14.6
 30
0.0
 11
-189.7561484151
 21
14.6
 31
0.0
  0
LINE
  5
F4
330
23
100
AcDbEntity
  8
0
  6
Continuous
 62
     7
370
    25
100
AcDbLine
 10
180.3696770612
 20
0.0
 30
0.0
 11
179.4782102561
 21
-0.7583640767
 31
0.0
  0
LINE
  5
F5
330
23
100
AcDbEntity
  8
0
  6
Continuous
 62
     7
370
    25
100
AcDbLine
 10
-154.1197262661
 20
-12.2411907305
 30
0.0
 11
154.1197262661
 21
-12.2411907305
 31
0.0
  0
LINE
  5
F6
330
23
100
AcDbEntity
  8
0
  6
Continuous
 62
     7
370
    25
100
AcDbLine
 10
-154.1845265413
 20
-12.2503587203
 30
0.0
 11
-155.7315831345
 21
-11.8407376224
 31
0.0
  0
LINE
  5
F7
330
23
100
AcDbEntity
  8
0
  6
Continuous
 62
     7
370
    25
100
AcDbLine
 10
-153.3397652456
 20
-12.3931508989
 30
0.0
 11
-154.1845265413
 21
-12.2503587203
 31
0.0
  0
LINE
  5
F8
330
23
100
AcDbEntity
  8
0
  6
Continuous
 62
     7
370
    25
100
AcDbLine
 10
154.1845265413
 20
-12.2503587203
 30
0.0
 11
153.3397652456
 21
-12.3931508989
 31
0.0
  0
ARC
  5
F9
330
23
100
AcDbEntity
  8
0
  6
Continuous
 62
     7
370
    25
100
AcDbCircle
 10
-116.6606257712
 20
28.1230879669
 30
0.0
 40
74.57527079932787
100
AcDbArc
 50
190.6325737168
 51
201.9294601519
  0
ARC
  5
FA
330
23
100
AcDbEntity
  8
0
  6
Continuous
 62
     7
370
    25
100
AcDbCircle
 10
116.6606257712
 20
28.1230879669
 30
0.0
 40
74.57527079933067
100
AcDbArc
 50
338.0705398481
 51
349.3674262832
  0
ARC
  5
FB
330
23
100
AcDbEntity
  8
0
  6
Continuous
 62
     7
370
    25
100
AcDbCircle
 10
150.7719803064
 20
33.9990977801
 30
0.0
 40
45.00389568795668
100
AcDbArc
 50
292.3728925654
 51
310.933536565
  0
ARC
  5
FC
330
23
100
AcDbEntity
  8
0
  6
Continuous
 62
     7
370
    25
100
AcDbCircle
 10
148.9157887357
 20
37.8215284677
 30
0.0
 40
49.28187273041499
100
AcDbArc
 50
292.7832496573
 51
299.8032084967
  0
ARC
  5
FD
330
23
100
AcDbEntity
  8
0
  6
Continuous
 62
     7
370
    25
100
AcDbCircle
 10
-150.4502415014
 20
34.5209900251
 30
0.0
 40
45.60907467695525
100
AcDbArc
 50
229.1906688065
 51
247.5029020631
  0
ARC
  5
FE
330
23
100
AcDbEntity
  8
0
  6
Continuous
 62
     7
370
    25
100
AcDbCircle
 10
129.7239798558
 20
83.3237736647
 30
0.0
 40
98.6296855047639
100
AcDbArc
 50
284.3205704269
 51
292.7731731966
  0
ARC
  5
FF
330
23
100
AcDbEntity
  8
0
  6
Continuous
 62
     7
370
    25
100
AcDbCircle
 10
-129.7239798558
 20
83.3237736647
 30
0.0
 40
98.62968550476371
100
AcDbArc
 50
247.2268268034
 51
255.6794295731
  0
ARC
  5
100
330
23
100
AcDbEntity
  8
0
  6
Continuous
 62
     7
370
    25
100
AcDbCircle
 10
-130.4853006213
 20
81.5390158963
 30
0.0
 40
96.72551902546361
100
AcDbArc
 50
247.1794023046
 51
251.8021671273
  0
ARC
  5
101
330
23
100
AcDbEntity
  8
0
  6
Continuous
 62
     7
370
    25
100
AcDbCircle
 10
129.1226224484
 20
85.5949493451
 30
0.0
 40
101.0039768879728
100
AcDbArc
 50
284.3667582207
 51
288.8204623774
  0
VIEWPORT
  5
360
330
23
100
AcDbEntity
  8
0
100
AcDbViewport
 10
0.0
 20
0.0
 30
0.0
 40
205.6
 41
156.0
 68
     1
 69
     1
 12
-13.0911322451
 22
0.9264697138
 13
0.0
 23
0.0
 14
10.0
 24
10.0
 15
10.0
 25
10.0
 16
0.0
 26
0.0
 36
1.0
 17
0.0
 27
0.0
 37
0.0
 42
50.0
 43
0.0
 44
0.0
 45
27.8940017838
 50
0.0
 51
0.0
 72
   100
 90
   557152
  1

281
     0
 71
     1
 74
     0
110
0.0
120
0.0
130
0.0
111
1.0
121
0.0
131
0.0
112
0.0
122
1.0
132
0.0
 79
     0
146
0.0
  0
ENDBLK
  5
25
330
23
100
AcDbEntity
  8
0
100
AcDbBlockEnd
  0
BLOCK
  5
104
330
102
100
AcDbEntity
  8
0
100
AcDbBlockBegin
  2
*Paper_Space1
 70
     0
 10
0.0
 20
0.0
 30
0.0
  3
*Paper_Space1
  1

  0
SPLINE
  5
107
330
102
100
AcDbEntity
  8
0
  6
Continuous
 62
     7
370
    25
100
AcDbSpline
210
0.0
220
0.0
230
1.0
 70
     8
 71
     3
 72
    12
 73
     8
 74
     0
 42
0.000000001
 43
0.00000001
 40
0.0
 40
0.0
 40
0.0
 40
0.0
 40
0.1158360093410643
 40
0.3946695375855885
 40
0.6293573273627429
 40
0.852639770494933
 40
1.0
 40
1.0
 40
1.0
 40
1.0
 10
182.3201087296015
 20
1.784461468853545
 30
0.0
 10
182.441814790026
 20
1.905559070091062
 30
0.0
 10
182.8564844153208
 20
2.318155589558621
 30
0.0
 10
183.4702823277854
 20
2.835760561213603
 30
0.0
 10
184.1238335084795
 20
3.302743505296532
 30
0.0
 10
184.6103498915652
 20
3.563787072268206
 30
0.0
 10
184.8219595855968
 20
3.594834824268105
 30
0.0
 10
184.9060914338162
 20
3.607178799201609
 30
0.0
  0
SPLINE
  5
109
330
102
100
AcDbEntity
  8
0
  6
Continuous
 62
     7
370
    25
100
AcDbSpline
210
0.0
220
0.0
230
1.0
 70
     8
 71
     3
 72
    13
 73
     9
 74
     0
 42
0.000000001
 43
0.00000001
 40
0.0
 40
0.0
 40
0.0
 40
0.0
 40
0.0648467340806699
 40
0.2778217583213267
 40
0.4924980785311697
 40
0.7205456276793816
 40
0.9622190322828479
 40
1.0
 40
1.0
 40
1.0
 40
1.0
 10
-184.9145900551096
 20
3.61327434185999
 30
0.0
 10
-184.8783391829868
 20
3.611800448816616
 30
0.0
 10
-184.7230301889932
 20
3.605485873954938
 30
0.0
 10
-184.3112138276135
 20
3.411002126288921
 30
0.0
 10
-183.7136824088317
 20
3.025823517537303
 30
0.0
 10
-183.004794580734
 20
2.440666037729454
 30
0.0
 10
-182.4530011694388
 20
1.941320664260583
 30
0.0
 10
-182.1304520563959
 20
1.605889687210298
 30
0.0
 10
-182.0868448745655
 20
1.560540935605402
 30
0.0
  0
SPLINE
  5
10A
330
102
100
AcDbEntity
  8
0
  6
Continuous
 62
     7
370
    25
100
AcDbSpline
210
0.0
220
0.0
230
1.0
 70
     8
 71
     3
 72
    16
 73
    12
 74
     0
 42
0.000000001
 43
0.00000001
 40
0.0
 40
0.0
 40
0.0
 40
0.0
 40
0.25
 40
0.25
 40
0.5
 40
0.5
 40
0.75
 40
0.75
 40
0.875
 40
0.875
 40
1.0
 40
1.0
 40
1.0
 40
1.0
 10
-154.1845265412558
 20
-12.25035872033251
 30
0.0
 10
-153.8413356837641
 20
-12.33838152163108
 30
0.0
 10
-153.4989843630624
 20
-12.41398419872795
 30
0.0
 10
-152.8158897869091
 20
-12.54119636443949
 30
0.0
 10
-152.4751295425064
 20
-12.59291558848151
 30
0.0
 10
-151.7959646395402
 20
-12.66768337900534
 30
0.0
 10
-151.4561155918134
 20
-12.69140807582182
 30
0.0
 10
-150.9629074355266
 20
-12.69023851384775
 30
0.0
 10
-150.8009040795806
 20
-12.68382151730849
 30
0.0
 10
-150.4864420092719
 20
-12.6486578865877
 30
0.0
 10
-150.3312745054381
 20
-12.62151269034477
 30
0.0
 10
-150.2039463869101
 20
-12.56473128192003
 30
0.0
  0
SPLINE
  5
10E
330
102
100
AcDbEntity
  8
0
  6
Continuous
 62
     7
370
    25
100
AcDbSpline
210
0.0
220
0.0
230
1.0
 70
     8
 71
     3
 72
    16
 73
    12
 74
     0
 42
0.000000001
 43
0.00000001
 40
0.0
 40
0.0
 40
0.0
 40
0.0
 40
0.125
 40
0.125
 40
0.25
 40
0.25
 40
0.5
 40
0.5
 40
0.75
 40
0.75
 40
1.0
 40
1.0
 40
1.0
 40
1.0
 10
-150.2039463869125
 20
-10.96249639166541
 30
0.0
 10
-150.3312745054396
 20
-10.85093057753924
 30
0.0
 10
-150.4864420092719
 20
-10.75646380246502
 30
0.0
 10
-150.8009040795805
 20
-10.58318492931708
 30
0.0
 10
-150.9629074355265
 20
-10.50485049667717
 30
0.0
 10
-151.4561155918133
 20
-10.28217887581126
 30
0.0
 10
-151.7959646395401
 20
-10.14987367409165
 30
0.0
 10
-152.4751295425064
 20
-9.905497959754488
 30
0.0
 10
-152.815889786909
 20
-9.793499873135158
 30
0.0
 10
-153.4989843630624
 20
-9.585145723960876
 30
0.0
 10
-153.841335683764
 20
-9.48889408880986
 30
0.0
 10
-154.1845265412558
 20
-9.400871287511285
 30
0.0
  0
SPLINE
  5
110
330
102
100
AcDbEntity
  8
0
  6
Continuous
 62
     7
370
    25
100
AcDbSpline
210
0.0
220
0.0
230
1.0
 70
     8
 71
     3
 72
    16
 73
    12
 74
     0
 42
0.000000001
 43
0.00000001
 40
0.0
 40
0.0
 40
0.0
 40
0.0
 40
0.125000000000006
 40
0.125000000000006
 40
0.2500000000000119
 40
0.2500000000000119
 40
0.500000000000008
 40
0.500000000000008
 40
0.750000000000004
 40
0.750000000000004
 40
1.0
 40
1.0
 40
1.0
 40
1.0
 10
150.1487277813944
 20
-10.92590459573882
 30
0.0
 10
150.2692045719587
 20
-10.80387981950713
 30
0.0
 10
150.4195364568949
 20
-10.69615937867159
 30
0.0
 10
150.728119104144
 20
-10.49812991528093
 30
0.0
 10
150.8883586395706
 20
-10.40795518790579
 30
0.0
 10
151.3783242215345
 20
-10.15094736197445
 30
0.0
 10
151.7191822054773
 20
-9.997021801598114
 30
0.0
 10
152.4007265703223
 20
-9.713032521747332
 30
0.0
 10
152.7430523609881
 20
-9.582876106322272
 30
0.0
 10
153.4297764538275
 20
-9.340745455982644
 30
0.0
 10
153.7741971041754
 20
-9.228891473744085
 30
0.0
 10
154.1197262661141
 20
-9.126634699280428
 30
0.0
  0
SPLINE
  5
112
330
102
100
AcDbEntity
  8
0
  6
Continuous
 62
     7
370
    25
100
AcDbSpline
210
0.0
220
0.0
230
1.0
 70
     8
 71
     3
 72
    16
 73
    12
 74
     0
 42
0.000000001
 43
0.00000001
 40
0.0
 40
0.0
 40
0.0
 40
0.0
 40
0.2499999999999999
 40
0.2499999999999999
 40
0.4999999999999998
 40
0.4999999999999998
 40
0.7499999999999997
 40
0.7499999999999997
 40
0.8749999999999998
 40
0.8749999999999998
 40
1.0
 40
1.0
 40
1.0
 40
1.0
 10
154.1845265412557
 20
-9.400871287511277
 30
0.0
 10
153.841335683764
 20
-9.48889408880985
 30
0.0
 10
153.4989843630623
 20
-9.58514572396086
 30
0.0
 10
152.8158897869089
 20
-9.79349987313513
 30
0.0
 10
152.4751295425063
 20
-9.905497959754465
 30
0.0
 10
151.7959646395401
 20
-10.14987367409161
 30
0.0
 10
151.4561155918132
 20
-10.28217887581121
 30
0.0
 10
150.9629074355264
 20
-10.50485049667711
 30
0.0
 10
150.8009040795804
 20
-10.58318492931704
 30
0.0
 10
150.4864420092719
 20
-10.75646380246498
 30
0.0
 10
150.3312745054381
 20
-10.85093057753765
 30
0.0
 10
150.20394638691
 20
-10.96249639166396
 30
0.0
  0
SPLINE
  5
117
330
102
100
AcDbEntity
  8
0
  6
Continuous
 62
     7
370
    25
100
AcDbSpline
210
0.0
220
0.0
230
1.0
 70
     8
 71
     3
 72
    16
 73
    12
 74
     0
 42
0.000000001
 43
0.00000001
 40
0.0
 40
0.0
 40
0.0
 40
0.0
 40
0.125
 40
0.125
 40
0.25
 40
0.25
 40
0.5
 40
0.5
 40
0.75
 40
0.75
 40
1.0
 40
1.0
 40
1.0
 40
1.0
 10
150.2039463869124
 20
-12.56473128191747
 30
0.0
 10
150.3312745054395
 20
-12.62151269034247
 30
0.0
 10
150.4864420092717
 20
-12.64865788658768
 30
0.0
 10
150.8009040795803
 20
-12.68382151730847
 30
0.0
 10
150.9629074355263
 20
-12.69023851384775
 30
0.0
 10
151.4561155918131
 20
-12.69140807582183
 30
0.0
 10
151.79596463954
 20
-12.66768337900535
 30
0.0
 10
152.4751295425063
 20
-12.59291558848152
 30
0.0
 10
152.8158897869089
 20
-12.54119636443951
 30
0.0
 10
153.4989843630624
 20
-12.41398419872796
 30
0.0
 10
153.841335683764
 20
-12.33838152163109
 30
0.0
 10
154.1845265412557
 20
-12.25035872033251
 30
0.0
  0
SPLINE
  5
11A
330
102
100
AcDbEntity
  8
0
  6
Continuous
 62
     7
370
    25
100
AcDbSpline
210
0.0
220
0.0
230
1.0
 70
     8
 71
     3
 72
    16
 73
    12
 74
     0
 42
0.000000001
 43
0.00000001
 40
0.0
 40
0.0
 40
0.0
 40
0.0
 40
0.1250000000000064
 40
0.1250000000000064
 40
0.2500000000000128
 40
0.2500000000000128
 40
0.5000000000000085
 40
0.5000000000000085
 40
0.7500000000000043
 40
0.7500000000000043
 40
1.0
 40
1.0
 40
1.0
 40
1.0
 10
-150.1487277813945
 20
-10.9259045957388
 30
0.0
 10
-150.2692045719589
 20
-10.80387981950711
 30
0.0
 10
-150.4195364568949
 20
-10.69615937867158
 30
0.0
 10
-150.7281191041441
 20
-10.49812991528092
 30
0.0
 10
-150.8883586395707
 20
-10.40795518790578
 30
0.0
 10
-151.3783242215347
 20
-10.15094736197445
 30
0.0
 10
-151.7191822054774
 20
-9.997021801598105
 30
0.0
 10
-152.4007265703225
 20
-9.713032521747325
 30
0.0
 10
-152.7430523609883
 20
-9.582876106322269
 30
0.0
 10
-153.4297764538275
 20
-9.340745455982637
 30
0.0
 10
-153.7741971041755
 20
-9.228891473744085
 30
0.0
 10
-154.1197262661142
 20
-9.126634699280427
 30
0.0
  0
SPLINE
  5
12F
330
102
100
AcDbEntity
  8
0
  6
Continuous
 62
     7
370
    25
100
AcDbSpline
210
0.0
220
0.0
230
1.0
 70
     8
 71
     3
 72
    11
 73
     7
 74
     0
 42
0.000000001
 43
0.00000001
 40
0.0
 40
0.0
 40
0.0
 40
0.0
 40
0.5066214082739736
 40
0.8811749925087438
 40
0.9777183289999762
 40
1.0
 40
1.0
 40
1.0
 40
1.0
 10
-153.3397652456121
 20
-12.39315089887668
 30
0.0
 10
-152.7724544529838
 20
-12.52879583247111
 30
0.0
 10
-151.7857214107551
 20
-12.7647253083911
 30
0.0
 10
-150.7208575211831
 20
-12.76774961022612
 30
0.0
 10
-150.2598263423354
 20
-12.65470152917622
 30
0.0
 10
-150.1662709736086
 20
-12.60975188577683
 30
0.0
 10
-150.1487277813945
 20
-12.60132307784372
 30
0.0
  0
SPLINE
  5
132
330
102
100
AcDbEntity
  8
0
  6
Continuous
 62
     7
370
    25
100
AcDbSpline
210
0.0
220
0.0
230
1.0
 70
     8
 71
     3
 72
    11
 73
     7
 74
     0
 42
0.000000001
 43
0.00000001
 40
0.0
 40
0.0
 40
0.0
 40
0.0
 40
0.5066214082740568
 40
0.8811749925087584
 40
0.9777183289999827
 40
1.0
 40
1.0
 40
1.0
 40
1.0
 10
153.3397652456125
 20
-12.39315089887657
 30
0.0
 10
152.7724544529841
 20
-12.52879583247104
 30
0.0
 10
151.7857214107552
 20
-12.76472530839107
 30
0.0
 10
150.7208575211831
 20
-12.76774961022613
 30
0.0
 10
150.2598263423352
 20
-12.65470152917622
 30
0.0
 10
150.1662709736084
 20
-12.60975188577684
 30
0.0
 10
150.1487277813944
 20
-12.60132307784373
 30
0.0
  0
SPLINE
  5
139
330
102
100
AcDbEntity
  8
0
  6
Continuous
 62
     7
370
    25
100
AcDbSpline
210
0.0
220
0.0
230
1.0
 70
     8
 71
     3
 72
    18
 73
    14
 74
     0
 42
0.000000001
 43
0.00000001
 40
0.0
 40
0.0
 40
0.0
 40
0.0
 40
0.2500000000000006
 40
0.2500000000000006
 40
0.3750000000000009
 40
0.3750000000000009
 40
0.5000000000000012
 40
0.5000000000000012
 40
0.7500000000000017
 40
0.7500000000000017
 40
0.8750000000000008
 40
0.8750000000000008
 40
1.0
 40
1.0
 40
1.0
 40
1.0
 10
-187.1627987068691
 20
10.80146020065695
 30
0.0
 10
-187.49235738509
 20
11.33796132288695
 30
0.0
 10
-187.7983166768912
 20
11.82472709654921
 30
0.0
 10
-188.2241355770053
 20
12.47648858499742
 30
0.0
 10
-188.3605448057227
 20
12.68058125077431
 30
0.0
 10
-188.6225752197159
 20
13.06047148768758
 30
0.0
 10
-188.7478912344713
 20
13.2357161533025
 30
0.0
 10
-189.0997634774992
 20
13.70430150908318
 30
0.0
 10
-189.3056206609729
 20
13.94590321292176
 30
0.0
 10
-189.5779173687118
 20
14.19409640918498
 30
0.0
 10
-189.662917522039
 20
14.25775722436551
 30
0.0
 10
-189.8189471032617
 20
14.34230165603221
 30
0.0
 10
-189.8902198501579
 20
14.36355781984542
 30
0.0
 10
-189.9554847021401
 20
14.36319446847651
 30
0.0
  0
SPLINE
  5
13B
330
102
100
AcDbEntity
  8
0
  6
Continuous
 62
     7
370
    25
100
AcDbSpline
210
0.0
220
0.0
230
1.0
 70
     8
 71
     3
 72
    30
 73
    26
 74
     0
 42
0.000000001
 43
0.00000001
 40
0.0
 40
0.0
 40
0.0
 40
0.0
 40
0.0624999999999998
 40
0.0624999999999998
 40
0.1249999999999996
 40
0.1249999999999996
 40
0.1874999999999994
 40
0.1874999999999994
 40
0.2499999999999992
 40
0.2499999999999992
 40
0.3749999999999983
 40
0.3749999999999983
 40
0.4374999999999984
 40
0.4374999999999984
 40
0.4999999999999987
 40
0.4999999999999987
 40
0.5624999999999988
 40
0.5624999999999988
 40
0.624999999999999
 40
0.624999999999999
 40
0.7499999999999992
 40
0.7499999999999992
 40
0.8749999999999996
 40
0.8749999999999996
 40
1.0
 40
1.0
 40
1.0
 40
1.0
 10
-185.8399543518194
 20
0.271849001118092
 30
0.0
 10
-185.8968489148549
 20
0.5174106052125517
 30
0.0
 10
-185.944213325858
 20
0.7548956638892724
 30
0.0
 10
-186.0203590330763
 20
1.213268069435319
 30
0.0
 10
-186.0491462656307
 20
1.435194083986747
 30
0.0
 10
-186.0867073396969
 20
1.850215118183577
 30
0.0
 10
-186.0957907160559
 20
2.044678556279347
 30
0.0
 10
-186.0948041253457
 20
2.407591574703152
 30
0.0
 10
-186.0845628070586
 20
2.577201487309095
 30
0.0
 10
-186.0245754437753
 20
3.036583873732207
 30
0.0
 10
-185.9475821530048
 20
3.273381893045823
 30
0.0
 10
-185.7762212280056
 20
3.531110322648746
 30
0.0
 10
-185.7094069799307
 20
3.600149503822044
 30
0.0
 10
-185.5613395756677
 20
3.701777973783568
 30
0.0
 10
-185.479592379199
 20
3.73526461452492
 30
0.0
 10
-185.3007008023051
 20
3.769995020284906
 30
0.0
 10
-185.2035531331098
 20
3.771226035600539
 30
0.0
 10
-184.9931734446448
 20
3.742350728326116
 30
0.0
 10
-184.8803310870934
 20
3.712073302717187
 30
0.0
 10
-184.5272132765753
 20
3.579966369330241
 30
0.0
 10
-184.2695611088065
 20
3.437067388200885
 30
0.0
 10
-183.7081374686781
 20
3.055056537506271
 30
0.0
 10
-183.4121057202254
 20
2.821009970933619
 30
0.0
 10
-182.7972368885434
 20
2.287764796220435
 30
0.0
 10
-182.477183808938
 20
1.98757464781689
 30
0.0
 10
-182.1440207740175
 20
1.656103835496473
 30
0.0
  0
SPLINE
  5
13C
330
102
100
AcDbEntity
  8
0
  6
Continuous
 62
     7
370
    25
100
AcDbSpline
210
0.0
220
0.0
230
1.0
 70
     8
 71
     3
 72
    18
 73
    14
 74
     0
 42
0.000000001
 43
0.00000001
 40
0.0
 40
0.0
 40
0.0
 40
0.0
 40
0.1250000000000007
 40
0.1250000000000007
 40
0.2500000000000014
 40
0.2500000000000014
 40
0.5000000000000006
 40
0.5000000000000006
 40
0.6250000000000003
 40
0.6250000000000003
 40
0.7500000000000002
 40
0.7500000000000002
 40
1.0
 40
1.0
 40
1.0
 40
1.0
 10
189.9554847021401
 20
14.36319446847651
 30
0.0
 10
189.8902198501579
 20
14.36355781984542
 30
0.0
 10
189.8189471032616
 20
14.34230165603221
 30
0.0
 10
189.662917522039
 20
14.25775722436552
 30
0.0
 10
189.5779173687119
 20
14.19409640918498
 30
0.0
 10
189.3056206609729
 20
13.94590321292176
 30
0.0
 10
189.0997634774992
 20
13.70430150908317
 30
0.0
 10
188.7478912344712
 20
13.2357161533025
 30
0.0
 10
188.6225752197159
 20
13.06047148768758
 30
0.0
 10
188.3605448057226
 20
12.68058125077431
 30
0.0
 10
188.2241355770053
 20
12.47648858499741
 30
0.0
 10
187.7983166768912
 20
11.82472709654921
 30
0.0
 10
187.4923573850899
 20
11.33796132288695
 30
0.0
 10
187.162798706869
 20
10.80146020065695
 30
0.0
  0
SPLINE
  5
13E
330
102
100
AcDbEntity
  8
0
  6
Continuous
 62
     7
370
    25
100
AcDbSpline
210
0.0
220
0.0
230
1.0
 70
     8
 71
     3
 72
    30
 73
    26
 74
     0
 42
0.000000001
 43
0.00000001
 40
0.0
 40
0.0
 40
0.0
 40
0.0
 40
0.125
 40
0.125
 40
0.2500000000000001
 40
0.2500000000000001
 40
0.3750000000000001
 40
0.3750000000000001
 40
0.4375000000000001
 40
0.4375000000000001
 40
0.5000000000000001
 40
0.5000000000000001
 40
0.5625000000000001
 40
0.5625000000000001
 40
0.6250000000000001
 40
0.6250000000000001
 40
0.75
 40
0.75
 40
0.8125000000000001
 40
0.8125000000000001
 40
0.8750000000000001
 40
0.8750000000000001
 40
0.9375000000000001
 40
0.9375000000000001
 40
1.0
 40
1.0
 40
1.0
 40
1.0
 10
182.1440207740152
 20
1.656103835494255
 30
0.0
 10
182.4771838089362
 20
1.987574647815174
 30
0.0
 10
182.7972368885419
 20
2.287764796219172
 30
0.0
 10
183.4121057202248
 20
2.821009970933125
 30
0.0
 10
183.7081374686778
 20
3.055056537506124
 30
0.0
 10
184.269561108807
 20
3.437067388201132
 30
0.0
 10
184.5272132765759
 20
3.579966369330597
 30
0.0
 10
184.8803310870944
 20
3.712073302717496
 30
0.0
 10
184.9931734446459
 20
3.742350728326372
 30
0.0
 10
185.203553133111
 20
3.771226035600597
 30
0.0
 10
185.3007008023064
 20
3.769995020284829
 30
0.0
 10
185.4795923792003
 20
3.735264614524499
 30
0.0
 10
185.561339575669
 20
3.701777973782934
 30
0.0
 10
185.7094069799321
 20
3.600149503820876
 30
0.0
 10
185.7762212280068
 20
3.53111032264725
 30
0.0
 10
185.9475821530058
 20
3.273381893043345
 30
0.0
 10
186.0245754437761
 20
3.036583873728931
 30
0.0
 10
186.0845628070589
 20
2.577201487304265
 30
0.0
 10
186.0948041253459
 20
2.407591574697908
 30
0.0
 10
186.0957907160557
 20
2.044678556273142
 30
0.0
 10
186.0867073396965
 20
1.850215118176861
 30
0.0
 10
186.0491462656296
 20
1.435194083978923
 30
0.0
 10
186.0203590330752
 20
1.213268069426955
 30
0.0
 10
185.9442133258561
 20
0.7548956638800116
 30
0.0
 10
185.8968489148522
 20
0.5174106051996737
 30
0.0
 10
185.8399543518162
 20
0.27184900110471
 30
0.0
  0
SPLINE
  5
141
330
102
100
AcDbEntity
  8
0
  6
Continuous
 62
     7
370
    25
100
AcDbSpline
210
0.0
220
0.0
230
1.0
 70
     8
 71
     3
 72
    12
 73
     8
 74
     0
 42
0.000000001
 43
0.00000001
 40
0.0
 40
0.0
 40
0.0
 40
0.0
 40
0.4999999999999347
 40
0.4999999999999347
 40
0.7499999999999674
 40
0.7499999999999674
 40
1.0
 40
1.0
 40
1.0
 40
1.0
 10
185.8399543518162
 20
0.2718490011047075
 30
0.0
 10
185.8162229323394
 20
0.213255079615211
 30
0.0
 10
185.7874366261692
 20
0.1574854704955845
 30
0.0
 10
185.7310110294738
 20
0.081232059469558
 30
0.0
 10
185.7099242475029
 20
0.0570459577064698
 30
0.0
 10
185.6609903853225
 20
0.0170850983107515
 30
0.0
 10
185.6322919134968
 20
-0.000000000001059
 30
0.0
 10
185.6000585511034
 20
0.0000000000031732
 30
0.0
  0
SPLINE
  5
143
330
102
100
AcDbEntity
  8
0
  6
Continuous
 62
     7
370
    25
100
AcDbSpline
210
0.0
220
0.0
230
1.0
 70
     8
 71
     3
 72
    12
 73
     8
 74
     0
 42
0.000000001
 43
0.00000001
 40
0.0
 40
0.0
 40
0.0
 40
0.0
 40
0.2500000000000327
 40
0.2500000000000327
 40
0.5000000000000654
 40
0.5000000000000654
 40
1.0
 40
1.0
 40
1.0
 40
1.0
 10
-185.6000585511047
 20
0.0
 30
0.0
 10
-185.6322268897589
 20
-0.0000000000000113
 30
0.0
 10
-185.6610277991601
 20
0.0170835356706534
 30
0.0
 10
-185.7102045180941
 20
0.0573071591295378
 30
0.0
 10
-185.730837919334
 20
0.0810272032124386
 30
0.0
 10
-185.7872583149285
 20
0.1571867361715751
 30
0.0
 10
-185.8162318472239
 20
0.2132770908637562
 30
0.0
 10
-185.8399543518194
 20
0.2718490011180915
 30
0.0
  0
SPLINE
  5
146
330
102
100
AcDbEntity
  8
0
  6
Continuous
 62
     7
370
    25
100
AcDbSpline
210
0.0
220
0.0
230
1.0
 70
     8
 71
     3
 72
    18
 73
    14
 74
     0
 42
0.000000001
 43
0.00000001
 40
0.0
 40
0.0
 40
0.0
 40
0.0
 40
0.2500000000000033
 40
0.2500000000000033
 40
0.3750000000000033
 40
0.3750000000000033
 40
0.5000000000000032
 40
0.5000000000000032
 40
0.7500000000000007
 40
0.7500000000000007
 40
0.8750000000000003
 40
0.8750000000000003
 40
1.0
 40
1.0
 40
1.0
 40
1.0
 10
186.981103103087
 20
10.99659330286613
 30
0.0
 10
187.3088684672588
 20
11.54035575198369
 30
0.0
 10
187.6130083864842
 20
12.03324974383109
 30
0.0
 10
188.0361602326856
 20
12.69273367761804
 30
0.0
 10
188.1716905207358
 20
12.89915407652211
 30
0.0
 10
188.431997794252
 20
13.28323467432986
 30
0.0
 10
188.5565035959193
 20
13.46038074970585
 30
0.0
 10
188.906027457815
 20
13.93383907261005
 30
0.0
 10
189.110442299798
 20
14.17768631233441
 30
0.0
 10
189.3808526652104
 20
14.42830441672136
 30
0.0
 10
189.4652751221191
 20
14.49263150022269
 30
0.0
 10
189.6203622695248
 20
14.57830645154818
 30
0.0
 10
189.6912274610632
 20
14.6
 30
0.0
 10
189.7561484150619
 20
14.6
 30
0.0
  0
SPLINE
  5
147
330
102
100
AcDbEntity
  8
0
  6
Continuous
 62
     7
370
    25
100
AcDbSpline
210
0.0
220
0.0
230
1.0
 70
     8
 71
     3
 72
    10
 73
     6
 74
     0
 42
0.000000001
 43
0.00000001
 40
0.0
 40
0.0
 40
0.0
 40
0.0
 40
0.5
 40
0.5
 40
1.0
 40
1.0
 40
1.0
 40
1.0
 10
189.7561484150619
 20
14.6
 30
0.0
 10
189.8155840664931
 20
14.6
 30
0.0
 10
189.8736543842879
 20
14.57308380224895
 30
0.0
 10
189.9495154865062
 20
14.48376472356067
 30
0.0
 10
189.9665592887139
 20
14.42161346407491
 30
0.0
 10
189.9554847021401
 20
14.36319446847651
 30
0.0
  0
SPLINE
  5
148
330
102
100
AcDbEntity
  8
0
  6
Continuous
 62
     7
370
    25
100
AcDbSpline
210
0.0
220
0.0
230
1.0
 70
     8
 71
     3
 72
    18
 73
    14
 74
     0
 42
0.000000001
 43
0.00000001
 40
0.0
 40
0.0
 40
0.0
 40
0.0
 40
0.1250000000000019
 40
0.1250000000000019
 40
0.2500000000000038
 40
0.2500000000000038
 40
0.5000000000000056
 40
0.5000000000000056
 40
0.625000000000005
 40
0.625000000000005
 40
0.7500000000000044
 40
0.7500000000000044
 40
1.0
 40
1.0
 40
1.0
 40
1.0
 10
-189.7561484150619
 20
14.6
 30
0.0
 10
-189.6912274610633
 20
14.6
 30
0.0
 10
-189.6203622695249
 20
14.57830645154817
 30
0.0
 10
-189.4652751221191
 20
14.49263150022268
 30
0.0
 10
-189.3808526652103
 20
14.42830441672136
 30
0.0
 10
-189.110442299798
 20
14.17768631233441
 30
0.0
 10
-188.906027457815
 20
13.93383907261005
 30
0.0
 10
-188.5565035959193
 20
13.46038074970585
 30
0.0
 10
-188.431997794252
 20
13.28323467432986
 30
0.0
 10
-188.1716905207358
 20
12.89915407652211
 30
0.0
 10
-188.0361602326857
 20
12.69273367761805
 30
0.0
 10
-187.6130083864842
 20
12.03324974383109
 30
0.0
 10
-187.3088684672588
 20
11.5403557519837
 30
0.0
 10
-186.981103103087
 20
10.99659330286614
 30
0.0
  0
SPLINE
  5
149
330
102
100
AcDbEntity
  8
0
  6
Continuous
 62
     7
370
    25
100
AcDbSpline
210
0.0
220
0.0
230
1.0
 70
     8
 71
     3
 72
    10
 73
     6
 74
     0
 42
0.000000001
 43
0.00000001
 40
0.0
 40
0.0
 40
0.0
 40
0.0
 40
0.5
 40
0.5
 40
1.0
 40
1.0
 40
1.0
 40
1.0
 10
-189.9554847021402
 20
14.36319446847651
 30
0.0
 10
-189.9665546261556
 20
14.42158886884757
 30
0.0
 10
-189.9496502538173
 20
14.4835174975888
 30
0.0
 10
-189.873772990132
 20
14.57303241091517
 30
0.0
 10
-189.8155604990052
 20
14.6000000000044
 30
0.0
 10
-189.7561484150623
 20
14.60000000000451
 30
0.0
  0
SPLINE
  5
14B
330
102
100
AcDbEntity
  8
0
  6
Continuous
 62
     8
370
    25
100
AcDbSpline
210
0.0
220
0.0
230
1.0
 70
     8
 71
     3
 72
    11
 73
     7
 74
     0
 42
0.000000001
 43
0.00000001
 40
0.0
 40
0.0
 40
0.0
 40
0.0
 40
0.2354088743359005
 40
0.5244567315255829
 40
0.8421428766944923
 40
1.0
 40
1.0
 40
1.0
 40
1.0
 10
185.6000585511047
 20
0.0
 30
0.0
 10
185.6994929530619
 20
0.4379033115293033
 30
0.0
 10
185.9210183377731
 20
1.413488196070182
 30
0.0
 10
185.9369610200853
 20
2.643036102704165
 30
0.0
 10
185.7399860185236
 20
3.441628483731872
 30
0.0
 10
185.3881780580231
 20
3.484785533184724
 30
0.0
 10
185.2713950094926
 20
3.499111564333975
 30
0.0
  0
SPLINE
  5
14C
330
102
100
AcDbEntity
  8
0
  6
Continuous
 62
     8
370
    25
100
AcDbSpline
210
0.0
220
0.0
230
1.0
 70
     8
 71
     3
 72
    11
 73
     7
 74
     0
 42
0.000000001
 43
0.00000001
 40
0.0
 40
0.0
 40
0.0
 40
0.0
 40
0.1578571233058635
 40
0.4755432684747345
 40
0.7645911256644098
 40
1.0
 40
1.0
 40
1.0
 40
1.0
 10
-185.2713950094927
 20
3.499111564333923
 30
0.0
 10
-185.3881780580234
 20
3.484785533184525
 30
0.0
 10
-185.739986018524
 20
3.441628483731296
 30
0.0
 10
-185.9369610200854
 20
2.643036102702898
 30
0.0
 10
-185.921018337773
 20
1.413488196068968
 30
0.0
 10
-185.6994929530619
 20
0.437903311528712
 30
0.0
 10
-185.6000585511047
 20
0.0
 30
0.0
  0
LINE
  5
14D
330
102
100
AcDbEntity
  8
0
  6
Continuous
 62
     7
370
    25
100
AcDbLine
 10
-151.1561325838
 20
-12.7471834865
 30
0.0
 11
151.1561325838
 21
-12.7471834865
 31
0.0
  0
LINE
  5
14E
330
102
100
AcDbEntity
  8
0
  6
Continuous
 62
     7
370
    25
100
AcDbLine
 10
182.1202168292
 20
1.5883424924
 30
0.0
 11
182.3201087296
 21
1.7844614689
 31
0.0
  0
LINE
  5
14F
330
102
100
AcDbEntity
  8
0
  6
Continuous
 62
     7
370
    25
100
AcDbLine
 10
-168.0
 20
-7.6151952284
 30
0.0
 11
-168.0
 21
-4.7657077956
 31
0.0
  0
LINE
  5
150
330
102
100
AcDbEntity
  8
0
  6
Continuous
 62
     7
370
    25
100
AcDbLine
 10
-150.2039463869
 20
-12.5647312819
 30
0.0
 11
-150.2039463869
 21
-10.9624963917
 31
0.0
  0
LINE
  5
151
330
102
100
AcDbEntity
  8
0
  6
Continuous
 62
     7
370
    25
100
AcDbLine
 10
168.0
 20
-7.6151952284
 30
0.0
 11
168.0
 21
-4.7657077956
 31
0.0
  0
LINE
  5
152
330
102
100
AcDbEntity
  8
0
  6
Continuous
 62
     7
370
    25
100
AcDbLine
 10
150.2039463869
 20
-10.9624963917
 30
0.0
 11
150.2039463869
 21
-12.5647312819
 31
0.0
  0
LINE
  5
153
330
102
100
AcDbEntity
  8
0
  6
Continuous
 62
     7
370
    25
100
AcDbLine
 10
-154.1197262661
 20
-9.1266346993
 30
0.0
 11
154.1197262661
 21
-9.1266346993
 31
0.0
  0
LINE
  5
154
330
102
100
AcDbEntity
  8
0
  6
Continuous
 62
     7
370
    25
100
AcDbLine
 10
149.7898068455
 20
-11.244007244
 30
0.0
 11
-149.7898068455
 21
-11.244007244
 31
0.0
  0
LINE
  5
155
330
102
100
AcDbEntity
  8
0
  6
Continuous
 62
     7
370
    25
100
AcDbLine
 10
-149.7898068455
 20
-11.244007244
 30
0.0
 11
-149.7898068455
 21
-12.3705487872
 31
0.0
  0
LINE
  5
156
330
102
100
AcDbEntity
  8
0
  6
Continuous
 62
     7
370
    25
100
AcDbLine
 10
149.7898068455
 20
-12.3705487872
 30
0.0
 11
149.7898068455
 21
-11.244007244
 31
0.0
  0
LINE
  5
157
330
102
100
AcDbEntity
  8
0
  6
Continuous
 62
     7
370
    25
100
AcDbLine
 10
-186.9811031031
 20
10.9965933029
 30
0.0
 11
186.9811031031
 21
10.9965933029
 31
0.0
  0
LINE
  5
158
330
102
100
AcDbEntity
  8
0
  6
Continuous
 62
     7
370
    25
100
AcDbLine
 10
-149.7898068455
 20
-12.3705487872
 30
0.0
 11
149.7898068455
 21
-12.3705487872
 31
0.0
  0
LINE
  5
159
330
102
100
AcDbEntity
  8
0
  6
Continuous
 62
     7
370
    25
100
AcDbLine
 10
185.0198829761
 20
3.5710285909
 30
0.0
 11
184.8832893985
 21
3.6100859823
 31
0.0
  0
LINE
  5
15A
330
102
100
AcDbEntity
  8
0
  6
Continuous
 62
     7
370
    25
100
AcDbLine
 10
-184.8877970695
 20
3.6087970647
 30
0.0
 11
-185.0198829761
 21
3.5710285909
 31
0.0
  0
LINE
  5
15B
330
102
100
AcDbEntity
  8
0
  6
Continuous
 62
     7
370
    25
100
AcDbLine
 10
-185.6000585511
 20
0.0
 30
0.0
 11
-180.3696770612
 21
0.0
 31
0.0
  0
LINE
  5
15C
330
102
100
AcDbEntity
  8
0
  6
Continuous
 62
     7
370
    25
100
AcDbLine
 10
180.3696770612
 20
0.0
 30
0.0
 11
185.6000585511
 21
0.0
 31
0.0
  0
LINE
  5
15D
330
102
100
AcDbEntity
  8
0
  6
Continuous
 62
     7
370
    25
100
AcDbLine
 10
-189.7561484151
 20
14.6
 30
0.0
 11
189.7561484151
 21
14.6
 31
0.0
  0
ARC
  5
15E
330
102
100
AcDbEntity
  8
0
  6
Continuous
 62
     7
370
    25
100
AcDbCircle
 10
-129.7299153434
 20
83.5451955177
 30
0.0
 40
98.86767024971334
100
AcDbArc
 50
247.2268268034
 51
255.6794295731
  0
ARC
  5
15F
330
102
100
AcDbEntity
  8
0
  6
Continuous
 62
     7
370
    25
100
AcDbCircle
 10
-129.7299153434
 20
86.3946829505
 30
0.0
 40
98.86767024971041
100
AcDbArc
 50
247.2268268034
 51
255.6794295731
  0
ARC
  5
160
330
102
100
AcDbEntity
  8
0
  6
Continuous
 62
     7
370
    25
100
AcDbCircle
 10
153.4155660407
 20
-9.4377972903
 30
0.0
 40
0.7698465958556288
100
AcDbArc
 50
2.7492700829
 51
23.8402396329
  0
ARC
  5
161
330
102
100
AcDbEntity
  8
0
  6
Continuous
 62
     7
370
    25
100
AcDbCircle
 10
150.3477727948
 20
-10.6854965783
 30
0.0
 40
0.3121136527056999
100
AcDbArc
 50
230.377056789
 51
242.5603401991
  0
ARC
  5
162
330
102
100
AcDbEntity
  8
0
  6
Continuous
 62
     7
370
    25
100
AcDbCircle
 10
129.7299153434
 20
86.3946829505
 30
0.0
 40
98.86767024971401
100
AcDbArc
 50
284.3205704269
 51
292.7731731966
  0
ARC
  5
163
330
102
100
AcDbEntity
  8
0
  6
Continuous
 62
     7
370
    25
100
AcDbCircle
 10
129.7299153434
 20
83.5451955177
 30
0.0
 40
98.86767024971496
100
AcDbArc
 50
284.3205704269
 51
292.7731731966
  0
ARC
  5
164
330
102
100
AcDbEntity
  8
0
  6
Continuous
 62
     7
370
    25
100
AcDbCircle
 10
-153.4155660407
 20
-9.4377972903
 30
0.0
 40
0.7698465958562609
100
AcDbArc
 50
156.1597603672
 51
177.2507299171
  0
ARC
  5
165
330
102
100
AcDbEntity
  8
0
  6
Continuous
 62
     7
370
    25
100
AcDbCircle
 10
-150.3477727948
 20
-10.6854965783
 30
0.0
 40
0.3121136527046469
100
AcDbArc
 50
297.4396598008
 51
309.622943211
  0
ARC
  5
166
330
102
100
AcDbEntity
  8
0
  6
Continuous
 62
     7
370
    25
100
AcDbCircle
 10
147.6735769384
 20
-8.4946872051
 30
0.0
 40
3.469465332942068
100
AcDbArc
 50
307.5865030739
 51
315.5130340828
  0
ARC
  5
167
330
102
100
AcDbEntity
  8
0
  6
Continuous
 62
     7
370
    25
100
AcDbCircle
 10
-147.6735769383
 20
-8.4946872051
 30
0.0
 40
3.469465332951043
100
AcDbArc
 50
224.4869659172
 51
232.413496926
  0
ARC
  5
168
330
102
100
AcDbEntity
  8
0
  6
Continuous
 62
     7
370
    25
100
AcDbCircle
 10
-148.0772255955
 20
-8.2791923304
 30
0.0
 40
3.423895735834543
100
AcDbArc
 50
231.6005219636
 51
239.9877604889
  0
ARC
  5
169
330
102
100
AcDbEntity
  8
0
  6
Continuous
 62
     7
370
    25
100
AcDbCircle
 10
148.0772255955
 20
-8.2791923304
 30
0.0
 40
3.423895735828896
100
AcDbArc
 50
300.0122395111
 51
308.3994780364
  0
ARC
  5
16A
330
102
100
AcDbEntity
  8
0
  6
Continuous
 62
     7
370
    25
100
AcDbCircle
 10
-151.1004007637
 20
-10.1141169477
 30
0.0
 40
2.609433092626405
100
AcDbArc
 50
290.0929249337
 51
300.1491268777
  0
ARC
  5
16B
330
102
100
AcDbEntity
  8
0
  6
Continuous
 62
     7
370
    25
100
AcDbCircle
 10
151.1004007637
 20
-10.1141169477
 30
0.0
 40
2.609433092628244
100
AcDbArc
 50
239.8508731223
 51
249.9070750663
  0
ARC
  5
16C
330
102
100
AcDbEntity
  8
0
  6
Continuous
 62
     7
370
    25
100
AcDbCircle
 10
-167.4920748032
 20
-4.8052095395
 30
0.0
 40
0.5094589220825969
100
AcDbArc
 50
143.5638773617
 51
175.553013108
  0
ARC
  5
16D
330
102
100
AcDbEntity
  8
0
  6
Continuous
 62
     7
370
    25
100
AcDbCircle
 10
-129.7239798558
 20
86.4383296959
 30
0.0
 40
98.62968550475988
100
AcDbArc
 50
247.2268268034
 51
255.6794295731
  0
ARC
  5
16E
330
102
100
AcDbEntity
  8
0
  6
Continuous
 62
     7
370
    25
100
AcDbCircle
 10
167.4920748032
 20
-4.8052095395
 30
0.0
 40
0.5094589220828284
100
AcDbArc
 50
4.446986892
 51
36.4361226383
  0
ARC
  5
16F
330
102
100
AcDbEntity
  8
0
  6
Continuous
 62
     7
370
    25
100
AcDbCircle
 10
129.7239798558
 20
86.4383296959
 30
0.0
 40
98.62968550476252
100
AcDbArc
 50
284.3205704269
 51
292.7731731966
  0
ARC
  5
170
330
102
100
AcDbEntity
  8
0
  6
Continuous
 62
     7
370
    25
100
AcDbCircle
 10
-153.1329723508
 20
33.170207852
 30
0.0
 40
40.46436874083606
100
AcDbArc
 50
213.2284575678
 51
248.5932119495
  0
ARC
  5
171
330
102
100
AcDbEntity
  8
0
  6
Continuous
 62
     7
370
    25
100
AcDbCircle
 10
153.1329723508
 20
33.170207852
 30
0.0
 40
40.46436874083585
100
AcDbArc
 50
291.4067880505
 51
326.7715424322
  0
ARC
  5
172
330
102
100
AcDbEntity
  8
0
  6
Continuous
 62
     7
370
    25
100
AcDbCircle
 10
-150.0747058082
 20
-12.4296611809
 30
0.0
 40
0.1869413260608766
100
AcDbArc
 50
226.2634861384
 51
246.6739108503
  0
ARC
  5
173
330
102
100
AcDbEntity
  8
0
  6
Continuous
 62
     7
370
    25
100
AcDbCircle
 10
-151.2856405681
 20
-10.4385938337
 30
0.0
 40
2.443351892003668
100
AcDbArc
 50
297.730199609
 51
307.749153977
  0
ARC
  5
174
330
102
100
AcDbEntity
  8
0
  6
Continuous
 62
     7
370
    25
100
AcDbCircle
 10
151.2856405681
 20
-10.4385938337
 30
0.0
 40
2.443351892003872
100
AcDbArc
 50
232.250846023
 51
242.269800391
  0
ARC
  5
175
330
102
100
AcDbEntity
  8
0
  6
Continuous
 62
     7
370
    25
100
AcDbCircle
 10
150.0747058082
 20
-12.4296611809
 30
0.0
 40
0.1869413260607514
100
AcDbArc
 50
293.3260891497
 51
313.7365138616
  0
ARC
  5
176
330
102
100
AcDbEntity
  8
0
  6
Continuous
 62
     7
370
    25
100
AcDbCircle
 10
-153.166283039
 20
33.0722804108
 30
0.0
 40
40.6417582098167
100
AcDbArc
 50
213.2284575678
 51
248.5932119495
  0
ARC
  5
177
330
102
100
AcDbEntity
  8
0
  6
Continuous
 62
     7
370
    25
100
AcDbCircle
 10
-186.9164247191
 20
10.7542106036
 30
0.0
 40
0.2508638401144859
100
AcDbArc
 50
104.9409059635
 51
169.1436334828
  0
ARC
  5
178
330
102
100
AcDbEntity
  8
0
  6
Continuous
 62
     7
370
    25
100
AcDbCircle
 10
186.9164247191
 20
10.7542106036
 30
0.0
 40
0.2508638401144935
100
AcDbArc
 50
10.8563665172
 51
75.0590940365
  0
ARC
  5
179
330
102
100
AcDbEntity
  8
0
  6
Continuous
 62
     7
370
    25
100
AcDbCircle
 10
153.166283039
 20
33.0722804108
 30
0.0
 40
40.64175820981673
100
AcDbArc
 50
291.4067880505
 51
326.7715424322
  0
ARC
  5
17A
330
102
100
AcDbEntity
  8
0
  6
Continuous
 62
     7
370
    25
100
AcDbCircle
 10
-116.6606257712
 20
28.1230879669
 30
0.0
 40
74.57527079933067
100
AcDbArc
 50
190.6325737168
 51
201.9294601519
  0
ARC
  5
17B
330
102
100
AcDbEntity
  8
0
  6
Continuous
 62
     7
370
    25
100
AcDbCircle
 10
-151.1453874192
 20
33.5222055658
 30
0.0
 40
44.45631236791199
100
AcDbArc
 50
225.7905723684
 51
247.7203487249
  0
ARC
  5
17C
330
102
100
AcDbEntity
  8
0
  6
Continuous
 62
     7
370
    25
100
AcDbCircle
 10
116.6606257712
 20
28.1230879669
 30
0.0
 40
74.57527079932785
100
AcDbArc
 50
338.0705398481
 51
349.3674262832
  0
ARC
  5
17D
330
102
100
AcDbEntity
  8
0
  6
Continuous
 62
     7
370
    25
100
AcDbCircle
 10
151.1453874192
 20
33.5222055658
 30
0.0
 40
44.4563123679125
100
AcDbArc
 50
292.2796512751
 51
314.2094276316
  0
VIEWPORT
  5
362
330
102
100
AcDbEntity
  8
0
100
AcDbViewport
 10
0.0
 20
0.0
 30
0.0
 40
205.6
 41
156.0
 68
     1
 69
     1
 12
-13.0911322451
 22
0.9264697138
 13
0.0
 23
0.0
 14
10.0
 24
10.0
 15
10.0
 25
10.0
 16
0.0
 26
0.0
 36
1.0
 17
0.0
 27
0.0
 37
0.0
 42
50.0
 43
0.0
 44
0.0
 45
27.8940017838
 50
0.0
 51
0.0
 72
   100
 90
   557152
  1

281
     0
 71
     1
 74
     0
110
0.0
120
0.0
130
0.0
111
1.0
121
0.0
131
0.0
112
0.0
122
1.0
132
0.0
 79
     0
146
0.0
  0
ENDBLK
  5
105
330
102
100
AcDbEntity
  8
0
100
AcDbBlockEnd
  0
BLOCK
  5
180
330
17E
100
AcDbEntity
  8
0
100
AcDbBlockBegin
  2
*Paper_Space2
 70
     0
 10
0.0
 20
0.0
 30
0.0
  3
*Paper_Space2
  1

  0
SPLINE
  5
182
330
17E
100
AcDbEntity
  8
0
  6
Continuous
 62
     7
370
    25
100
AcDbSpline
210
0.0
220
0.0
230
1.0
 70
     8
 71
     3
 72
    18
 73
    14
 74
     0
 42
0.000000001
 43
0.00000001
 40
0.0
 40
0.0
 40
0.0
 40
0.0
 40
0.1250000000000019
 40
0.1250000000000019
 40
0.2500000000000038
 40
0.2500000000000038
 40
0.5000000000000056
 40
0.5000000000000056
 40
0.625000000000005
 40
0.625000000000005
 40
0.7500000000000044
 40
0.7500000000000044
 40
1.0
 40
1.0
 40
1.0
 40
1.0
 10
0.0
 20
14.6
 30
0.0
 10
0.393607947803562
 20
14.6
 30
0.0
 10
0.7844372413380908
 20
14.57830645154817
 30
0.0
 10
1.560344954244897
 20
14.49263150022268
 30
0.0
 10
1.945892044426356
 20
14.42830441672136
 30
0.0
 10
3.071700529350342
 20
14.17768631233441
 30
0.0
 10
3.788988773904467
 20
13.93383907261005
 30
0.0
 10
4.815656416500943
 20
13.46038074970585
 30
0.0
 10
5.151550454465354
 20
13.28323467432986
 30
0.0
 10
5.795266077843381
 20
12.89915407652211
 30
0.0
 10
6.102839560855929
 20
12.69273367761805
 30
0.0
 10
6.984829807924043
 20
12.03324974383109
 30
0.0
 10
7.518853027509534
 20
11.5403557519837
 30
0.0
 10
7.999999999999996
 20
10.99659330286614
 30
0.0
  0
LWPOLYLINE
  5
183
330
17E
100
AcDbEntity
  8
0
  6
Continuous
 62
     7
370
    25
100
AcDbPolyline
 90
        9
 70
   128
 43
0.0
 10
8.0
 20
10.9965933029
 10
8.0079281129
 20
10.9818342728
 10
8.009795513
 20
10.9625492053
 10
8.0055304372
 20
10.9394792145
 10
7.9952967901
 20
10.9135108673
 10
7.9794878449
 20
10.8856421127
 10
7.9587111304
 20
10.8569439313
 10
7.9337650843
 20
10.8285191782
 10
7.9056083691
 20
10.8014602007
  0
SPLINE
  5
184
330
17E
100
AcDbEntity
  8
0
  6
Continuous
 62
     7
370
    25
100
AcDbSpline
210
0.0
220
0.0
230
1.0
 70
     8
 71
     3
 72
    18
 73
    14
 74
     0
 42
0.000000001
 43
0.00000001
 40
0.0
 40
0.0
 40
0.0
 40
0.0
 40
0.2500000000000006
 40
0.2500000000000006
 40
0.3750000000000009
 40
0.3750000000000009
 40
0.5000000000000012
 40
0.5000000000000012
 40
0.7500000000000017
 40
0.7500000000000017
 40
0.8750000000000008
 40
0.8750000000000008
 40
1.0
 40
1.0
 40
1.0
 40
1.0
 10
7.905608369075923
 20
10.80146020065695
 30
0.0
 10
7.430886565248518
 20
11.33796132288695
 30
0.0
 10
6.903913870249164
 20
11.82472709654921
 30
0.0
 10
6.033219922332888
 20
12.47648858499742
 30
0.0
 10
5.729533020088484
 20
12.68058125077431
 30
0.0
 10
5.093803553030889
 20
13.06047148768758
 30
0.0
 10
4.762089991208842
 20
13.2357161533025
 30
0.0
 10
3.747829786054273
 20
13.70430150908318
 30
0.0
 10
3.038798298542158
 20
13.94590321292176
 30
0.0
 10
1.925156992035024
 20
14.19409640918498
 30
0.0
 10
1.543666573435224
 20
14.25775722436551
 30
0.0
 10
0.776158390458203
 20
14.34230165603221
 30
0.0
 10
0.3894892656246454
 20
14.36355781984542
 30
0.0
 10
0.0
 20
14.36319446847651
 30
0.0
  0
SPLINE
  5
185
330
17E
100
AcDbEntity
  8
0
  6
Continuous
 62
     7
370
    25
100
AcDbSpline
210
0.0
220
0.0
230
1.0
 70
    24
 71
     3
 72
    10
 73
     6
 74
     0
 42
0.000000001
 43
0.00000001
 40
0.0
 40
0.0
 40
0.0
 40
0.0
 40
0.5
 40
0.5
 40
1.0
 40
1.0
 40
1.0
 40
1.0
 10
-0.0000000000000017
 20
14.36319446847651
 30
0.0
 10
-0.0000000000000017
 20
14.42158886884757
 30
0.0
 10
0.0
 20
14.4835174975888
 30
0.0
 10
0.0
 20
14.57303241091517
 30
0.0
 10
0.0
 20
14.6000000000044
 30
0.0
 10
0.0
 20
14.60000000000451
 30
0.0
  0
SPLINE
  5
18A
330
17E
100
AcDbEntity
  8
0
  6
Continuous
 62
     7
370
    25
100
AcDbSpline
210
0.0
220
0.0
230
1.0
 70
     8
 71
     3
 72
    14
 73
    10
 74
     0
 42
0.000000001
 43
0.00000001
 40
0.0
 40
0.0
 40
0.0
 40
0.0
 40
0.1010749858358935
 40
0.2546406803978998
 40
0.4233724590238537
 40
0.6161853885803246
 40
0.8083175022380646
 40
0.9371351636185405
 40
1.0
 40
1.0
 40
1.0
 40
1.0
 10
0.0
 20
0.2718490011180477
 30
0.0
 10
0.2001840248216716
 20
0.6307508597464638
 30
0.0
 10
0.7045125277031251
 20
1.534941077745547
 30
0.0
 10
2.005385787760062
 20
2.763333839537338
 30
0.0
 10
3.937472779761548
 20
3.683071152326942
 30
0.0
 10
6.153963658389962
 20
3.874302761294205
 30
0.0
 10
7.985610106359224
 20
3.354599474125319
 30
0.0
 10
9.162324144620612
 20
2.694444675781625
 30
0.0
 10
9.619085007506964
 20
2.249394648757991
 30
0.0
 10
9.76888583567891
 20
2.103434545686125
 30
0.0
  0
LWPOLYLINE
  5
18D
330
17E
100
AcDbEntity
  8
0
  6
Continuous
 62
     7
370
    25
100
AcDbPolyline
 90
        9
 70
   128
 43
0.0
 10
10.2561798834
 20
1.6561038355
 10
10.2254273341
 20
1.6319785084
 10
10.1927935426
 20
1.6122419681
 10
10.159532607
 20
1.5976526788
 10
10.1269227264
 20
1.5887712986
 10
10.0962170804
 20
1.5859391341
 10
10.0685956696
 20
1.5892650238
 10
10.0451199693
 20
1.5986211555
 10
10.0266921376
 20
1.6136479784
  0
SPLINE
  5
18E
330
17E
100
AcDbEntity
  8
0
  6
Continuous
 62
     7
370
    25
100
AcDbSpline
210
0.0
220
0.0
230
1.0
 70
     8
 71
     3
 72
    30
 73
    26
 74
     0
 42
0.000000001
 43
0.00000001
 40
0.0
 40
0.0
 40
0.0
 40
0.0
 40
0.1249999999999978
 40
0.1249999999999978
 40
0.1874999999999968
 40
0.1874999999999968
 40
0.2499999999999958
 40
0.2499999999999958
 40
0.3749999999999943
 40
0.3749999999999943
 40
0.4374999999999949
 40
0.4374999999999949
 40
0.4999999999999954
 40
0.4999999999999954
 40
0.562499999999996
 40
0.562499999999996
 40
0.6249999999999966
 40
0.6249999999999966
 40
0.7499999999999974
 40
0.7499999999999974
 40
0.8749999999999984
 40
0.8749999999999984
 40
0.9374999999999992
 40
0.9374999999999992
 40
1.0
 40
1.0
 40
1.0
 40
1.0
 10
10.02669213764655
 20
1.61364797837125
 30
0.0
 10
9.739202105231863
 20
1.938551371846927
 30
0.0
 10
9.41717021187116
 20
2.232401622569096
 30
0.0
 10
8.880080673460117
 20
2.622792620274657
 30
0.0
 10
8.691984010114627
 20
2.744455935476557
 30
0.0
 10
8.296421863336327
 20
2.969192105290069
 30
0.0
 10
8.087799175814009
 20
3.072750243951762
 30
0.0
 10
7.438283986866778
 20
3.348148314390949
 30
0.0
 10
6.979790085963598
 20
3.483438661472289
 30
0.0
 10
6.251346477676922
 20
3.602482245600201
 30
0.0
 10
5.99968598167549
 20
3.628029764742444
 30
0.0
 10
5.494454151865131
 20
3.64673899623964
 30
0.0
 10
5.240549867374503
 20
3.640244057271921
 30
0.0
 10
4.730485730166314
 20
3.594318137958454
 30
0.0
 10
4.47432596126017
 20
3.554903901868691
 30
0.0
 10
3.959961805021669
 20
3.440289189819705
 30
0.0
 10
3.700222314543396
 20
3.364235356487367
 30
0.0
 10
2.946390559484348
 20
3.08689422137651
 30
0.0
 10
2.467320892013351
 20
2.835297961185641
 30
0.0
 10
1.571488516371993
 20
2.192344222251565
 30
0.0
 10
1.176557101002278
 20
1.817260394255749
 30
0.0
 10
0.662299773532566
 20
1.175598242321973
 30
0.0
 10
0.5058535045067494
 20
0.9501323223564594
 30
0.0
 10
0.2282518781453226
 20
0.4865353232759758
 30
0.0
 10
0.1059719232131291
 20
0.2470259057675002
 30
0.0
 10
0.0
 20
-0.0000000000000048
 30
0.0
  0
SPLINE
  5
18F
330
17E
100
AcDbEntity
  8
0
  6
Continuous
 62
     7
370
    25
100
AcDbSpline
210
0.0
220
0.0
230
1.0
 70
    24
 71
     3
 72
    12
 73
     8
 74
     0
 42
0.000000001
 43
0.00000001
 40
0.0
 40
0.0
 40
0.0
 40
0.0
 40
0.2500000000000327
 40
0.2500000000000327
 40
0.5000000000000654
 40
0.5000000000000654
 40
1.0
 40
1.0
 40
1.0
 40
1.0
 10
0.0
 20
0.0
 30
0.0
 10
0.0
 20
-0.0000000000000113
 30
0.0
 10
0.0
 20
0.0170835356706534
 30
0.0
 10
0.0
 20
0.0573071591295378
 30
0.0
 10
0.0
 20
0.0810272032124386
 30
0.0
 10
0.0
 20
0.1571867361715751
 30
0.0
 10
0.0
 20
0.2132770908637562
 30
0.0
 10
0.0
 20
0.2718490011180915
 30
0.0
  0
SPLINE
  5
192
330
17E
100
AcDbEntity
  8
0
  6
Continuous
 62
     7
370
    25
100
AcDbSpline
210
0.0
220
0.0
230
1.0
 70
     8
 71
     3
 72
    16
 73
    12
 74
     0
 42
0.000000001
 43
0.00000001
 40
0.0
 40
0.0
 40
0.0
 40
0.0
 40
0.25
 40
0.25
 40
0.5
 40
0.5
 40
0.75
 40
0.75
 40
0.875
 40
0.875
 40
1.0
 40
1.0
 40
1.0
 40
1.0
 10
22.56128180358963
 20
-12.25035872033251
 30
0.0
 10
22.63916858011065
 20
-12.33838152163108
 30
0.0
 10
22.7268691152178
 20
-12.41398419872795
 30
0.0
 10
22.92118247944982
 20
-12.54119636443949
 30
0.0
 10
23.0276766402003
 20
-12.59291558848151
 30
0.0
 10
23.26471351915727
 20
-12.66768337900534
 30
0.0
 10
23.39510034461508
 20
-12.69140807582182
 30
0.0
 10
23.6195838491898
 20
-12.69023851384775
 30
0.0
 10
23.69929224233884
 20
-12.68382151730849
 30
0.0
 10
23.87818211331895
 20
-12.6486578865877
 30
0.0
 10
23.97668593812437
 20
-12.62151269034477
 30
0.0
 10
24.09605165861194
 20
-12.56473128192003
 30
0.0
  0
SPLINE
  5
195
330
17E
100
AcDbEntity
  8
0
  6
Continuous
 62
     7
370
    25
100
AcDbSpline
210
0.0
220
0.0
230
1.0
 70
     8
 71
     3
 72
    16
 73
    12
 74
     0
 42
0.000000001
 43
0.00000001
 40
0.0
 40
0.0
 40
0.0
 40
0.0
 40
0.125
 40
0.125
 40
0.25
 40
0.25
 40
0.5
 40
0.5
 40
0.75
 40
0.75
 40
1.0
 40
1.0
 40
1.0
 40
1.0
 10
25.90679809950992
 20
-10.96249639166541
 30
0.0
 10
25.97768796259755
 20
-10.85093057753924
 30
0.0
 10
26.01662244073622
 20
-10.75646380246502
 30
0.0
 10
26.07330135202898
 20
-10.58318492931708
 30
0.0
 10
26.08937376460369
 20
-10.50485049667717
 30
0.0
 10
26.11786167365842
 20
-10.28217887581126
 30
0.0
 10
26.11018579651427
 20
-10.14987367409165
 30
0.0
 10
26.06482926746182
 20
-9.905497959754488
 30
0.0
 10
26.026458536389
 20
-9.793499873135158
 30
0.0
 10
25.92384680632826
 20
-9.585145723960876
 30
0.0
 10
25.85948244217346
 20
-9.48889408880986
 30
0.0
 10
25.78159566565245
 20
-9.400871287511285
 30
0.0
  0
SPLINE
  5
19C
330
17E
100
AcDbEntity
  8
0
  6
Continuous
 62
     7
370
    25
100
AcDbSpline
210
0.0
220
0.0
230
1.0
 70
     8
 71
     3
 72
    16
 73
    12
 74
     0
 42
0.000000001
 43
0.00000001
 40
0.0
 40
0.0
 40
0.0
 40
0.0
 40
0.2499999999999956
 40
0.2499999999999956
 40
0.4999999999999911
 40
0.4999999999999911
 40
0.7499999999999867
 40
0.7499999999999867
 40
0.8749999999999933
 40
0.8749999999999933
 40
1.0
 40
1.0
 40
1.0
 40
1.0
 10
22.2861148137379
 20
-12.24119073050362
 30
0.0
 10
22.37659648920055
 20
-12.34344750496728
 30
0.0
 10
22.47854553860084
 20
-12.43104200761928
 30
0.0
 10
22.70446486376115
 20
-12.5780154363857
 30
0.0
 10
22.82829825982167
 20
-12.63752258604265
 30
0.0
 10
23.10395549746171
 20
-12.72280873305955
 30
0.0
 10
23.25578855493162
 20
-12.74927405718205
 30
0.0
 10
23.51512930880493
 20
-12.74595382989008
 30
0.0
 10
23.60698137511094
 20
-12.73778657188557
 30
0.0
 10
23.81161435074661
 20
-12.69604247278029
 30
0.0
 10
23.92412862686935
 20
-12.6635364593884
 30
0.0
 10
24.05469788168352
 20
-12.60132307784502
 30
0.0
  0
SPLINE
  5
19D
330
17E
100
AcDbEntity
  8
0
  6
Continuous
 62
     7
370
    25
100
AcDbSpline
210
0.0
220
0.0
230
1.0
 70
     8
 71
     3
 72
    16
 73
    12
 74
     0
 42
0.000000001
 43
0.00000001
 40
0.0
 40
0.0
 40
0.0
 40
0.0
 40
0.1250000000000064
 40
0.1250000000000064
 40
0.2500000000000128
 40
0.2500000000000128
 40
0.5000000000000085
 40
0.5000000000000085
 40
0.7500000000000043
 40
0.7500000000000043
 40
1.0
 40
1.0
 40
1.0
 40
1.0
 10
25.94815187643905
 20
-10.9259045957388
 30
0.0
 10
26.02579715402486
 20
-10.80387981950711
 30
0.0
 10
26.07175811424692
 20
-10.69615937867158
 30
0.0
 10
26.13810233899053
 20
-10.49812991528092
 30
0.0
 10
26.15739028161843
 20
-10.40795518790578
 30
0.0
 10
26.19225613796656
 20
-10.15094736197445
 30
0.0
 10
26.18447072953772
 20
-9.997021801598105
 30
0.0
 10
26.13337544143633
 20
-9.713032521747325
 30
0.0
 10
26.08938546116948
 20
-9.582876106322269
 30
0.0
 10
25.97100692253027
 20
-9.340745455982637
 30
0.0
 10
25.89647443145527
 20
-9.228891473744085
 30
0.0
 10
25.80599275599263
 20
-9.126634699280427
 30
0.0
  0
LINE
  5
1A5
330
17E
100
AcDbEntity
  8
0
  6
Continuous
 62
     7
370
    25
100
AcDbLine
 10
0.0
 20
14.3631944685
 30
0.0
 11
0.0
 21
0.2718490011
 31
0.0
  0
LINE
  5
1A6
330
17E
100
AcDbEntity
  8
0
  6
Continuous
 62
     7
370
    25
100
AcDbLine
 10
25.7815956657
 20
-9.4008712875
 30
0.0
 11
7.9056083691
 21
10.8014602007
 31
0.0
  0
LINE
  5
1A7
330
17E
100
AcDbEntity
  8
0
  6
Continuous
 62
     7
370
    25
100
AcDbLine
 10
18.4598678778
 20
-7.6151952284
 30
0.0
 11
21.6801817399
 21
-4.7657077956
 31
0.0
  0
LINE
  5
1A8
330
17E
100
AcDbEntity
  8
0
  6
Continuous
 62
     7
370
    25
100
AcDbLine
 10
10.2561798834
 20
1.6561038355
 30
0.0
 11
22.5612818036
 21
-12.2503587203
 31
0.0
  0
LINE
  5
1A9
330
17E
100
AcDbEntity
  8
0
  6
Continuous
 62
     7
370
    25
100
AcDbLine
 10
8.0
 20
10.9965933029
 30
0.0
 11
25.805992756
 21
-9.1266346993
 31
0.0
  0
LINE
  5
1AA
330
17E
100
AcDbEntity
  8
0
  6
Continuous
 62
     7
370
    25
100
AcDbLine
 10
22.2861148137
 20
-12.2411907305
 30
0.0
 11
10.0266921376
 21
1.6136479784
 31
0.0
  0
LINE
  5
1AB
330
17E
100
AcDbEntity
  8
0
  6
Continuous
 62
     7
370
    25
100
AcDbLine
 10
24.0960516586
 20
-12.5647312819
 30
0.0
 11
25.9067980995
 21
-10.9624963917
 31
0.0
  0
LINE
  5
1AC
330
17E
100
AcDbEntity
  8
0
  6
Continuous
 62
     7
370
    25
100
AcDbLine
 10
25.6766346993
 20
-11.244007244
 30
0.0
 11
24.4034873585
 21
-12.3705487872
 31
0.0
  0
LINE
  5
1AD
330
17E
100
AcDbEntity
  8
0
  6
Continuous
 62
     8
370
    25
100
AcDbLine
 10
9.7688858357
 20
2.1034345457
 30
0.0
 11
10.2561798834
 21
1.6561038355
 31
0.0
  0
ARC
  5
1AE
330
17E
100
AcDbEntity
  8
0
  6
Continuous
 62
     7
370
    25
100
AcDbCircle
 10
21.5645321581
 20
-4.6168712052
 30
0.0
 40
0.1884864886238164
100
AcDbArc
 50
307.8480591443
 51
37.3084274946
  0
ARC
  5
1AF
330
17E
100
AcDbEntity
  8
0
  6
Continuous
 62
     7
370
    25
100
AcDbCircle
 10
18.32621657
 20
-7.4822874246
 30
0.0
 40
0.1884864886238242
100
AcDbArc
 50
225.6994443479
 51
315.1598126983
  0
ARC
  5
1B0
330
17E
100
AcDbEntity
  8
0
  6
Continuous
 62
     7
370
    25
100
AcDbCircle
 10
22.4282893533
 20
-12.1079796402
 30
0.0
 40
0.1948301677896402
100
AcDbArc
 50
223.1357539634
 51
313.0477062501
  0
ARC
  5
1B1
330
17E
100
AcDbEntity
  8
0
  6
Continuous
 62
     7
370
    25
100
AcDbCircle
 10
25.6564650419
 20
-9.251535688
 30
0.0
 40
0.1948301677896497
100
AcDbArc
 50
309.9601655925
 51
39.8721178792
  0
ARC
  5
1B2
330
17E
100
AcDbEntity
  8
0
  6
Continuous
 62
     7
370
    25
100
AcDbCircle
 10
24.0095759496
 20
-12.5086654363
 30
0.0
 40
0.1030603089994104
100
AcDbArc
 50
295.9649128626
 51
327.0429589795
  0
ARC
  5
1B3
330
17E
100
AcDbEntity
  8
0
  6
Continuous
 62
     7
370
    25
100
AcDbCircle
 10
25.8616761674
 20
-10.8698387501
 30
0.0
 40
0.1030603089994401
100
AcDbArc
 50
295.9649128631
 51
327.04295898
  0
ARC
  5
1B4
330
17E
100
AcDbEntity
  8
0
  6
Continuous
 62
     7
370
    25
100
AcDbCircle
 10
24.9208459018
 20
-10.391227705
 30
0.0
 40
1.139495348206519
100
AcDbArc
 50
311.5494532964
 51
329.9116501575
  0
ARC
  5
1B5
330
17E
100
AcDbEntity
  8
0
  6
Continuous
 62
     7
370
    25
100
AcDbCircle
 10
23.6490544584
 20
-11.5165694855
 30
0.0
 40
1.139495348206754
100
AcDbArc
 50
293.0962216851
 51
311.4584185462
  0
ARC
  5
1B6
330
17E
100
AcDbEntity
  8
0
  6
Continuous
 62
     7
370
    25
100
AcDbCircle
 10
23.4094801145
 20
-11.2471834865
 30
0.0
 40
1.500000000000115
100
AcDbArc
 50
295.476773864
 51
311.5039359213
  0
ARC
  5
1B7
330
17E
100
AcDbEntity
  8
0
  6
Continuous
 62
     7
370
    25
100
AcDbCircle
 10
24.6826274553
 20
-10.1206419433
 30
0.0
 40
1.500000000000153
100
AcDbArc
 50
311.5039359213
 51
327.5310979786
  0
VIEWPORT
  5
364
330
17E
100
AcDbEntity
  8
0
100
AcDbViewport
 10
0.0
 20
0.0
 30
0.0
 40
205.6
 41
156.0
 68
     1
 69
     1
 12
-13.0911322451
 22
0.9264697138
 13
0.0
 23
0.0
 14
10.0
 24
10.0
 15
10.0
 25
10.0
 16
0.0
 26
0.0
 36
1.0
 17
0.0
 27
0.0
 37
0.0
 42
50.0
 43
0.0
 44
0.0
 45
27.8940017838
 50
0.0
 51
0.0
 72
   100
 90
   557152
  1

281
     0
 71
     1
 74
     0
110
0.0
120
0.0
130
0.0
111
1.0
121
0.0
131
0.0
112
0.0
122
1.0
132
0.0
 79
     0
146
0.0
  0
ENDBLK
  5
181
330
17E
100
AcDbEntity
  8
0
100
AcDbBlockEnd
  0
BLOCK
  5
1BA
330
1B8
100
AcDbEntity
  8
0
100
AcDbBlockBegin
  2
*Paper_Space3
 70
     0
 10
0.0
 20
0.0
 30
0.0
  3
*Paper_Space3
  1

  0
SPLINE
  5
1BD
330
1B8
100
AcDbEntity
  8
0
  6
Continuous
 62
     7
370
    25
100
AcDbSpline
210
0.0
220
0.0
230
1.0
 70
     8
 71
     3
 72
    16
 73
    12
 74
     0
 42
0.000000001
 43
0.00000001
 40
0.0
 40
0.0
 40
0.0
 40
0.0
 40
0.2499999999999961
 40
0.2499999999999961
 40
0.4999999999999922
 40
0.4999999999999922
 40
0.7499999999999883
 40
0.7499999999999883
 40
0.8749999999999941
 40
0.8749999999999941
 40
1.0
 40
1.0
 40
1.0
 40
1.0
 10
154.1197262661141
 20
22.2861148137379
 30
0.0
 10
153.7741971041755
 20
22.37659648920054
 30
0.0
 10
153.4297764538275
 20
22.47854553860083
 30
0.0
 10
152.7430523609882
 20
22.70446486376114
 30
0.0
 10
152.4007265703224
 20
22.82829825982165
 30
0.0
 10
151.7191822054774
 20
23.1039554974617
 30
0.0
 10
151.3783242215346
 20
23.25578855493161
 30
0.0
 10
150.8883586395707
 20
23.51512930880491
 30
0.0
 10
150.728119104144
 20
23.60698137511093
 30
0.0
 10
150.4195364568949
 20
23.8116143507466
 30
0.0
 10
150.2692045719578
 20
23.92412862686933
 30
0.0
 10
150.148727781393
 20
24.0546978816835
 30
0.0
  0
SPLINE
  5
1BF
330
1B8
100
AcDbEntity
  8
0
  6
Continuous
 62
     7
370
    25
100
AcDbSpline
210
0.0
220
0.0
230
1.0
 70
     8
 71
     3
 72
    16
 73
    12
 74
     0
 42
0.000000001
 43
0.00000001
 40
0.0
 40
0.0
 40
0.0
 40
0.0
 40
0.125
 40
0.125
 40
0.25
 40
0.25
 40
0.5
 40
0.5
 40
0.75
 40
0.75
 40
1.0
 40
1.0
 40
1.0
 40
1.0
 10
150.2039463869124
 20
24.09605165861375
 30
0.0
 10
150.3312745054395
 20
23.97668593812628
 30
0.0
 10
150.4864420092717
 20
23.87818211331904
 30
0.0
 10
150.8009040795803
 20
23.69929224233891
 30
0.0
 10
150.9629074355263
 20
23.61958384918985
 30
0.0
 10
151.4561155918131
 20
23.39510034461512
 30
0.0
 10
151.79596463954
 20
23.26471351915728
 30
0.0
 10
152.4751295425063
 20
23.0276766402003
 30
0.0
 10
152.8158897869089
 20
22.92118247944985
 30
0.0
 10
153.4989843630624
 20
22.72686911521781
 30
0.0
 10
153.841335683764
 20
22.63916858011066
 30
0.0
 10
154.1845265412557
 20
22.56128180358964
 30
0.0
  0
SPLINE
  5
1C1
330
1B8
100
AcDbEntity
  8
0
  6
Continuous
 62
     7
370
    25
100
AcDbSpline
210
0.0
220
0.0
230
1.0
 70
     8
 71
     3
 72
    16
 73
    12
 74
     0
 42
0.000000001
 43
0.00000001
 40
0.0
 40
0.0
 40
0.0
 40
0.0
 40
0.2499999999999999
 40
0.2499999999999999
 40
0.4999999999999998
 40
0.4999999999999998
 40
0.7499999999999997
 40
0.7499999999999997
 40
0.8749999999999998
 40
0.8749999999999998
 40
1.0
 40
1.0
 40
1.0
 40
1.0
 10
154.1845265412557
 20
25.78159566565244
 30
0.0
 10
153.841335683764
 20
25.85948244217346
 30
0.0
 10
153.4989843630623
 20
25.92384680632825
 30
0.0
 10
152.8158897869089
 20
26.02645853638898
 30
0.0
 10
152.4751295425063
 20
26.06482926746181
 30
0.0
 10
151.7959646395401
 20
26.11018579651427
 30
0.0
 10
151.4561155918132
 20
26.11786167365842
 30
0.0
 10
150.9629074355264
 20
26.0893737646037
 30
0.0
 10
150.8009040795804
 20
26.07330135202898
 30
0.0
 10
150.4864420092719
 20
26.01662244073625
 30
0.0
 10
150.3312745054381
 20
25.97768796260006
 30
0.0
 10
150.20394638691
 20
25.90679809951265
 30
0.0
  0
SPLINE
  5
1C6
330
1B8
100
AcDbEntity
  8
0
  6
Continuous
 62
     7
370
    25
100
AcDbSpline
210
0.0
220
0.0
230
1.0
 70
     8
 71
     3
 72
    16
 73
    12
 74
     0
 42
0.000000001
 43
0.00000001
 40
0.0
 40
0.0
 40
0.0
 40
0.0
 40
0.25
 40
0.25
 40
0.5
 40
0.5
 40
0.75
 40
0.75
 40
0.875
 40
0.875
 40
1.0
 40
1.0
 40
1.0
 40
1.0
 10
-154.1845265412558
 20
22.56128180358963
 30
0.0
 10
-153.8413356837641
 20
22.63916858011065
 30
0.0
 10
-153.4989843630624
 20
22.7268691152178
 30
0.0
 10
-152.8158897869091
 20
22.92118247944982
 30
0.0
 10
-152.4751295425064
 20
23.0276766402003
 30
0.0
 10
-151.7959646395402
 20
23.26471351915727
 30
0.0
 10
-151.4561155918134
 20
23.39510034461508
 30
0.0
 10
-150.9629074355266
 20
23.6195838491898
 30
0.0
 10
-150.8009040795806
 20
23.69929224233884
 30
0.0
 10
-150.4864420092719
 20
23.87818211331895
 30
0.0
 10
-150.3312745054381
 20
23.97668593812437
 30
0.0
 10
-150.2039463869101
 20
24.09605165861194
 30
0.0
  0
SPLINE
  5
1CA
330
1B8
100
AcDbEntity
  8
0
  6
Continuous
 62
     7
370
    25
100
AcDbSpline
210
0.0
220
0.0
230
1.0
 70
     8
 71
     3
 72
    16
 73
    12
 74
     0
 42
0.000000001
 43
0.00000001
 40
0.0
 40
0.0
 40
0.0
 40
0.0
 40
0.125
 40
0.125
 40
0.25
 40
0.25
 40
0.5
 40
0.5
 40
0.75
 40
0.75
 40
1.0
 40
1.0
 40
1.0
 40
1.0
 10
-150.2039463869125
 20
25.90679809950992
 30
0.0
 10
-150.3312745054396
 20
25.97768796259755
 30
0.0
 10
-150.4864420092719
 20
26.01662244073622
 30
0.0
 10
-150.8009040795805
 20
26.07330135202898
 30
0.0
 10
-150.9629074355265
 20
26.08937376460369
 30
0.0
 10
-151.4561155918133
 20
26.11786167365842
 30
0.0
 10
-151.7959646395401
 20
26.11018579651427
 30
0.0
 10
-152.4751295425064
 20
26.06482926746182
 30
0.0
 10
-152.815889786909
 20
26.026458536389
 30
0.0
 10
-153.4989843630624
 20
25.92384680632826
 30
0.0
 10
-153.841335683764
 20
25.85948244217346
 30
0.0
 10
-154.1845265412558
 20
25.78159566565245
 30
0.0
  0
SPLINE
  5
1CD
330
1B8
100
AcDbEntity
  8
0
  6
Continuous
 62
     7
370
    25
100
AcDbSpline
210
0.0
220
0.0
230
1.0
 70
     8
 71
     3
 72
    16
 73
    12
 74
     0
 42
0.000000001
 43
0.00000001
 40
0.0
 40
0.0
 40
0.0
 40
0.0
 40
0.2499999999999956
 40
0.2499999999999956
 40
0.4999999999999911
 40
0.4999999999999911
 40
0.7499999999999867
 40
0.7499999999999867
 40
0.8749999999999933
 40
0.8749999999999933
 40
1.0
 40
1.0
 40
1.0
 40
1.0
 10
-154.1197262661142
 20
22.2861148137379
 30
0.0
 10
-153.7741971041756
 20
22.37659648920055
 30
0.0
 10
-153.4297764538276
 20
22.47854553860084
 30
0.0
 10
-152.7430523609883
 20
22.70446486376115
 30
0.0
 10
-152.4007265703225
 20
22.82829825982167
 30
0.0
 10
-151.7191822054775
 20
23.10395549746171
 30
0.0
 10
-151.3783242215347
 20
23.25578855493162
 30
0.0
 10
-150.8883586395708
 20
23.51512930880493
 30
0.0
 10
-150.7281191041442
 20
23.60698137511094
 30
0.0
 10
-150.419536456895
 20
23.81161435074661
 30
0.0
 10
-150.2692045719579
 20
23.92412862686935
 30
0.0
 10
-150.1487277813932
 20
24.05469788168352
 30
0.0
  0
SPLINE
  5
1E1
330
1B8
100
AcDbEntity
  8
0
  6
Continuous
 62
     7
370
    25
100
AcDbSpline
210
0.0
220
0.0
230
1.0
 70
     8
 71
     3
 72
    16
 73
    12
 74
     0
 42
0.000000001
 43
0.00000001
 40
0.0
 40
0.0
 40
0.0
 40
0.0
 40
0.1250000000000064
 40
0.1250000000000064
 40
0.2500000000000128
 40
0.2500000000000128
 40
0.5000000000000085
 40
0.5000000000000085
 40
0.7500000000000043
 40
0.7500000000000043
 40
1.0
 40
1.0
 40
1.0
 40
1.0
 10
-150.1487277813945
 20
25.94815187643905
 30
0.0
 10
-150.2692045719589
 20
26.02579715402486
 30
0.0
 10
-150.4195364568949
 20
26.07175811424692
 30
0.0
 10
-150.7281191041441
 20
26.13810233899053
 30
0.0
 10
-150.8883586395707
 20
26.15739028161843
 30
0.0
 10
-151.3783242215347
 20
26.19225613796656
 30
0.0
 10
-151.7191822054774
 20
26.18447072953772
 30
0.0
 10
-152.4007265703225
 20
26.13337544143633
 30
0.0
 10
-152.7430523609883
 20
26.08938546116948
 30
0.0
 10
-153.4297764538275
 20
25.97100692253027
 30
0.0
 10
-153.7741971041755
 20
25.89647443145527
 30
0.0
 10
-154.1197262661142
 20
25.80599275599263
 30
0.0
  0
SPLINE
  5
1E2
330
1B8
100
AcDbEntity
  8
0
  6
Continuous
 62
     7
370
    25
100
AcDbSpline
210
0.0
220
0.0
230
1.0
 70
     8
 71
     3
 72
    16
 73
    12
 74
     0
 42
0.000000001
 43
0.00000001
 40
0.0
 40
0.0
 40
0.0
 40
0.0
 40
0.125000000000006
 40
0.125000000000006
 40
0.2500000000000119
 40
0.2500000000000119
 40
0.500000000000008
 40
0.500000000000008
 40
0.750000000000004
 40
0.750000000000004
 40
1.0
 40
1.0
 40
1.0
 40
1.0
 10
150.1487277813944
 20
25.94815187643903
 30
0.0
 10
150.2692045719587
 20
26.02579715402485
 30
0.0
 10
150.4195364568949
 20
26.07175811424692
 30
0.0
 10
150.728119104144
 20
26.13810233899052
 30
0.0
 10
150.8883586395706
 20
26.15739028161843
 30
0.0
 10
151.3783242215345
 20
26.19225613796655
 30
0.0
 10
151.7191822054773
 20
26.18447072953773
 30
0.0
 10
152.4007265703223
 20
26.13337544143634
 30
0.0
 10
152.7430523609881
 20
26.08938546116948
 30
0.0
 10
153.4297764538275
 20
25.97100692253028
 30
0.0
 10
153.7741971041754
 20
25.89647443145527
 30
0.0
 10
154.1197262661141
 20
25.80599275599263
 30
0.0
  0
LWPOLYLINE
  5
1E5
330
1B8
100
AcDbEntity
  8
0
  6
Continuous
 62
     7
370
    25
100
AcDbPolyline
 90
        9
 70
   128
 43
0.0
 10
154.1197262661
 20
25.805992756
 10
154.1323681727
 20
25.8275761263
 10
154.1445242578
 20
25.84257402
 10
154.1557273701
 20
25.8504100765
 10
154.1655469801
 20
25.8507831604
 10
154.1736057258
 20
25.8436789344
 10
154.179593914
 20
25.8293704099
 10
154.1832814221
 20
25.8084074554
 10
154.1845265413
 20
25.7815956657
  0
LWPOLYLINE
  5
1E7
330
1B8
100
AcDbEntity
  8
0
  6
Continuous
 62
     7
370
    25
100
AcDbPolyline
 90
        9
 70
   128
 43
0.0
 10
-154.1845265413
 20
25.7815956657
 10
-154.1832814221
 20
25.8084074554
 10
-154.179593914
 20
25.8293704099
 10
-154.1736057258
 20
25.8436789344
 10
-154.1655469801
 20
25.8507831604
 10
-154.1557273701
 20
25.8504100765
 10
-154.1445242578
 20
25.84257402
 10
-154.1323681727
 20
25.8275761263
 10
-154.1197262661
 20
25.805992756
  0
SPLINE
  5
1F0
330
1B8
100
AcDbEntity
  8
0
  6
Continuous
 62
     7
370
    25
100
AcDbSpline
210
0.0
220
0.0
230
1.0
 70
     8
 71
     3
 72
    18
 73
    14
 74
     0
 42
0.000000001
 43
0.00000001
 40
0.0
 40
0.0
 40
0.0
 40
0.0
 40
0.2500000000000006
 40
0.2500000000000006
 40
0.3750000000000009
 40
0.3750000000000009
 40
0.5000000000000012
 40
0.5000000000000012
 40
0.7500000000000017
 40
0.7500000000000017
 40
0.8750000000000008
 40
0.8750000000000008
 40
1.0
 40
1.0
 40
1.0
 40
1.0
 10
-187.1627987068691
 20
7.905608369075923
 30
0.0
 10
-187.49235738509
 20
7.430886565248518
 30
0.0
 10
-187.7983166768912
 20
6.903913870249164
 30
0.0
 10
-188.2241355770053
 20
6.033219922332888
 30
0.0
 10
-188.3605448057227
 20
5.729533020088484
 30
0.0
 10
-188.6225752197159
 20
5.093803553030889
 30
0.0
 10
-188.7478912344713
 20
4.762089991208842
 30
0.0
 10
-189.0997634774992
 20
3.747829786054273
 30
0.0
 10
-189.3056206609729
 20
3.038798298542158
 30
0.0
 10
-189.5779173687118
 20
1.925156992035024
 30
0.0
 10
-189.662917522039
 20
1.543666573435224
 30
0.0
 10
-189.8189471032617
 20
0.776158390458203
 30
0.0
 10
-189.8902198501579
 20
0.3894892656246454
 30
0.0
 10
-189.9554847021401
 20
0.0
 30
0.0
  0
SPLINE
  5
1F2
330
1B8
100
AcDbEntity
  8
0
  6
Continuous
 62
     7
370
    25
100
AcDbSpline
210
0.0
220
0.0
230
1.0
 70
     8
 71
     3
 72
    30
 73
    26
 74
     0
 42
0.000000001
 43
0.00000001
 40
0.0
 40
0.0
 40
0.0
 40
0.0
 40
0.0624999999999998
 40
0.0624999999999998
 40
0.1249999999999996
 40
0.1249999999999996
 40
0.1874999999999994
 40
0.1874999999999994
 40
0.2499999999999992
 40
0.2499999999999992
 40
0.3749999999999983
 40
0.3749999999999983
 40
0.4374999999999984
 40
0.4374999999999984
 40
0.4999999999999987
 40
0.4999999999999987
 40
0.5624999999999988
 40
0.5624999999999988
 40
0.624999999999999
 40
0.624999999999999
 40
0.7499999999999992
 40
0.7499999999999992
 40
0.8749999999999996
 40
0.8749999999999996
 40
1.0
 40
1.0
 40
1.0
 40
1.0
 10
-185.8399543518194
 20
0.0000000000000121
 30
0.0
 10
-185.8968489148549
 20
0.1187621484949591
 30
0.0
 10
-185.944213325858
 20
0.253540870831126
 30
0.0
 10
-186.0203590330763
 20
0.5557138409848003
 30
0.0
 10
-186.0491462656307
 20
0.7242609521469091
 30
0.0
 10
-186.0867073396969
 20
1.085784633563592
 30
0.0
 10
-186.0957907160559
 20
1.279430397610503
 30
0.0
 10
-186.0948041253457
 20
1.692404788545703
 30
0.0
 10
-186.0845628070586
 20
1.913537563828662
 30
0.0
 10
-186.0245754437753
 20
2.604333506485718
 30
0.0
 10
-185.9475821530048
 20
3.092050088866144
 30
0.0
 10
-185.7762212280056
 20
3.861131118602986
 30
0.0
 10
-185.7094069799307
 20
4.123935901934957
 30
0.0
 10
-185.5613395756677
 20
4.642918190009644
 30
0.0
 10
-185.479592379199
 20
4.901500626137447
 30
0.0
 10
-185.3007008023051
 20
5.416625319448459
 30
0.0
 10
-185.2035531331098
 20
5.673167706483517
 30
0.0
 10
-184.9931734446448
 20
6.183895056801023
 30
0.0
 10
-184.8803310870934
 20
6.436788070056371
 30
0.0
 10
-184.5272132765753
 20
7.170183493587449
 30
0.0
 10
-184.2695611088065
 20
7.632913429400451
 30
0.0
 10
-183.7081374686781
 20
8.508622994412118
 30
0.0
 10
-183.4121057202254
 20
8.909051274803717
 30
0.0
 10
-182.7972368885434
 20
9.635301040306574
 30
0.0
 10
-182.477183808938
 20
9.962878685236532
 30
0.0
 10
-182.1440207740175
 20
10.256179883353
 30
0.0
  0
SPLINE
  5
1F4
330
1B8
100
AcDbEntity
  8
0
  6
Continuous
 62
     7
370
    25
100
AcDbSpline
210
0.0
220
0.0
230
1.0
 70
     8
 71
     3
 72
    18
 73
    14
 74
     0
 42
0.000000001
 43
0.00000001
 40
0.0
 40
0.0
 40
0.0
 40
0.0
 40
0.1250000000000007
 40
0.1250000000000007
 40
0.2500000000000014
 40
0.2500000000000014
 40
0.5000000000000006
 40
0.5000000000000006
 40
0.6250000000000003
 40
0.6250000000000003
 40
0.7500000000000002
 40
0.7500000000000002
 40
1.0
 40
1.0
 40
1.0
 40
1.0
 10
189.9554847021401
 20
0.0
 30
0.0
 10
189.8902198501579
 20
0.3894892656246471
 30
0.0
 10
189.8189471032616
 20
0.7761583904581995
 30
0.0
 10
189.662917522039
 20
1.543666573435222
 30
0.0
 10
189.5779173687119
 20
1.92515699203503
 30
0.0
 10
189.3056206609729
 20
3.038798298542162
 30
0.0
 10
189.0997634774992
 20
3.747829786054275
 30
0.0
 10
188.7478912344712
 20
4.762089991208842
 30
0.0
 10
188.6225752197159
 20
5.093803553030889
 30
0.0
 10
188.3605448057226
 20
5.729533020088486
 30
0.0
 10
188.2241355770053
 20
6.033219922332886
 30
0.0
 10
187.7983166768912
 20
6.903913870249166
 30
0.0
 10
187.4923573850899
 20
7.430886565248518
 30
0.0
 10
187.162798706869
 20
7.905608369075923
 30
0.0
  0
SPLINE
  5
1F6
330
1B8
100
AcDbEntity
  8
0
  6
Continuous
 62
     7
370
    25
100
AcDbSpline
210
0.0
220
0.0
230
1.0
 70
     8
 71
     3
 72
    30
 73
    26
 74
     0
 42
0.000000001
 43
0.00000001
 40
0.0
 40
0.0
 40
0.0
 40
0.0
 40
0.125
 40
0.125
 40
0.2500000000000001
 40
0.2500000000000001
 40
0.3750000000000001
 40
0.3750000000000001
 40
0.4375000000000001
 40
0.4375000000000001
 40
0.5000000000000001
 40
0.5000000000000001
 40
0.5625000000000001
 40
0.5625000000000001
 40
0.6250000000000001
 40
0.6250000000000001
 40
0.75
 40
0.75
 40
0.8125000000000001
 40
0.8125000000000001
 40
0.8750000000000001
 40
0.8750000000000001
 40
0.9375000000000001
 40
0.9375000000000001
 40
1.0
 40
1.0
 40
1.0
 40
1.0
 10
182.1440207740152
 20
10.25617988335496
 30
0.0
 10
182.4771838089362
 20
9.962878685238337
 30
0.0
 10
182.7972368885419
 20
9.63530104030811
 30
0.0
 10
183.4121057202248
 20
8.90905127480457
 30
0.0
 10
183.7081374686778
 20
8.508622994412475
 30
0.0
 10
184.269561108807
 20
7.632913429399854
 30
0.0
 10
184.5272132765759
 20
7.170183493586297
 30
0.0
 10
184.8803310870944
 20
6.436788070054252
 30
0.0
 10
184.9931734446459
 20
6.183895056798534
 30
0.0
 10
185.203553133111
 20
5.67316770648046
 30
0.0
 10
185.3007008023064
 20
5.416625319445098
 30
0.0
 10
185.4795923792003
 20
4.901500626133481
 30
0.0
 10
185.561339575669
 20
4.642918190005363
 30
0.0
 10
185.7094069799321
 20
4.123935901930033
 30
0.0
 10
185.7762212280068
 20
3.861131118597739
 30
0.0
 10
185.9475821530058
 20
3.092050088860328
 30
0.0
 10
186.0245754437761
 20
2.604333506479536
 30
0.0
 10
186.0845628070589
 20
1.913537563822029
 30
0.0
 10
186.0948041253459
 20
1.69240478853915
 30
0.0
 10
186.0957907160557
 20
1.279430397604028
 30
0.0
 10
186.0867073396965
 20
1.085784633557173
 30
0.0
 10
186.0491462656296
 20
0.7242609521406641
 30
0.0
 10
186.0203590330752
 20
0.5557138409787252
 30
0.0
 10
185.9442133258561
 20
0.2535408708255818
 30
0.0
 10
185.8968489148522
 20
0.1187621484880046
 30
0.0
 10
185.8399543518162
 20
-0.0000000000064601
 30
0.0
  0
SPLINE
  5
1F7
330
1B8
100
AcDbEntity
  8
0
  6
Continuous
 62
     7
370
    25
100
AcDbSpline
210
0.0
220
0.0
230
1.0
 70
     8
 71
     3
 72
    30
 73
    26
 74
     0
 42
0.000000001
 43
0.00000001
 40
0.0
 40
0.0
 40
0.0
 40
0.0
 40
0.1249999999999978
 40
0.1249999999999978
 40
0.1874999999999968
 40
0.1874999999999968
 40
0.2499999999999958
 40
0.2499999999999958
 40
0.3749999999999943
 40
0.3749999999999943
 40
0.4374999999999949
 40
0.4374999999999949
 40
0.4999999999999954
 40
0.4999999999999954
 40
0.562499999999996
 40
0.562499999999996
 40
0.6249999999999966
 40
0.6249999999999966
 40
0.7499999999999974
 40
0.7499999999999974
 40
0.8749999999999984
 40
0.8749999999999984
 40
0.9374999999999992
 40
0.9374999999999992
 40
1.0
 40
1.0
 40
1.0
 40
1.0
 10
-181.9842306780592
 20
10.02669213764655
 30
0.0
 10
-182.3216573258531
 20
9.739202105231863
 30
0.0
 10
-182.6458437112345
 20
9.41717021187116
 30
0.0
 10
-183.1129182008663
 20
8.880080673460117
 30
0.0
 10
-183.26539914666
 20
8.691984010114627
 30
0.0
 10
-183.5639241816585
 20
8.296421863336327
 30
0.0
 10
-183.7107182212219
 20
8.087799175814009
 30
0.0
 10
-184.1358165617271
 20
7.438283986866778
 30
0.0
 10
-184.3956531353237
 20
6.979790085963598
 30
0.0
 10
-184.7509629709554
 20
6.251346477676922
 30
0.0
 10
-184.8643978387584
 20
5.99968598167549
 30
0.0
 10
-185.0740664715416
 20
5.494454151865131
 30
0.0
 10
-185.1706316128029
 20
5.240549867374503
 30
0.0
 10
-185.3478014789546
 20
4.730485730166314
 30
0.0
 10
-185.428411234788
 20
4.47432596126017
 30
0.0
 10
-185.5734672501277
 20
3.959961805021669
 30
0.0
 10
-185.6381146540541
 20
3.700222314543396
 30
0.0
 10
-185.8006858986608
 20
2.946390559484348
 30
0.0
 10
-185.8708346635265
 20
2.467320892013351
 30
0.0
 10
-185.9318469984764
 20
1.571488516371993
 30
0.0
 10
-185.9215266202239
 20
1.176557101002278
 30
0.0
 10
-185.845210678744
 20
0.662299773532566
 30
0.0
 10
-185.8095211222175
 20
0.5058535045067494
 30
0.0
 10
-185.7193165202993
 20
0.2282518781453226
 30
0.0
 10
-185.6646463112754
 20
0.1059719232131291
 30
0.0
 10
-185.6000585511047
 20
0.0
 30
0.0
  0
SPLINE
  5
1F8
330
1B8
100
AcDbEntity
  8
0
  6
Continuous
 62
     7
370
    25
100
AcDbSpline
210
0.0
220
0.0
230
1.0
 70
    24
 71
     3
 72
    12
 73
     8
 74
     0
 42
0.000000001
 43
0.00000001
 40
0.0
 40
0.0
 40
0.0
 40
0.0
 40
0.2500000000000327
 40
0.2500000000000327
 40
0.5000000000000654
 40
0.5000000000000654
 40
1.0
 40
1.0
 40
1.0
 40
1.0
 10
-185.6000585511047
 20
0.0
 30
0.0
 10
-185.6322268897589
 20
0.0
 30
0.0
 10
-185.6610277991601
 20
0.0
 30
0.0
 10
-185.7102045180941
 20
0.0
 30
0.0
 10
-185.730837919334
 20
0.0
 30
0.0
 10
-185.7872583149285
 20
0.0
 30
0.0
 10
-185.8162318472239
 20
0.0
 30
0.0
 10
-185.8399543518194
 20
0.0
 30
0.0
  0
SPLINE
  5
1F9
330
1B8
100
AcDbEntity
  8
0
  6
Continuous
 62
     7
370
    25
100
AcDbSpline
210
0.0
220
0.0
230
1.0
 70
     8
 71
     3
 72
    30
 73
    26
 74
     0
 42
0.000000001
 43
0.00000001
 40
0.0
 40
0.0
 40
0.0
 40
0.0
 40
0.0624999999999988
 40
0.0624999999999988
 40
0.1249999999999977
 40
0.1249999999999977
 40
0.2499999999999961
 40
0.2499999999999961
 40
0.3749999999999944
 40
0.3749999999999944
 40
0.4374999999999936
 40
0.4374999999999936
 40
0.4999999999999927
 40
0.4999999999999927
 40
0.5624999999999918
 40
0.5624999999999918
 40
0.6249999999999908
 40
0.6249999999999908
 40
0.7499999999999916
 40
0.7499999999999916
 40
0.8124999999999937
 40
0.8124999999999937
 40
0.8749999999999959
 40
0.8749999999999959
 40
1.0
 40
1.0
 40
1.0
 40
1.0
 10
185.6000585511047
 20
0.0
 30
0.0
 10
185.6646463112753
 20
0.1059719232131308
 30
0.0
 10
185.7193165202992
 20
0.228251878145326
 30
0.0
 10
185.8095211222173
 20
0.5058535045067459
 30
0.0
 10
185.8452106787439
 20
0.6622997735325487
 30
0.0
 10
185.921526620224
 20
1.17655710100229
 30
0.0
 10
185.9318469984764
 20
1.571488516372009
 30
0.0
 10
185.8708346635264
 20
2.467320892013309
 30
0.0
 10
185.8006858986608
 20
2.946390559484382
 30
0.0
 10
185.638114654054
 20
3.700222314543398
 30
0.0
 10
185.5734672501277
 20
3.959961805021669
 30
0.0
 10
185.4284112347879
 20
4.474325961260198
 30
0.0
 10
185.3478014789546
 20
4.730485730166349
 30
0.0
 10
185.1706316128029
 20
5.240549867374539
 30
0.0
 10
185.0740664715417
 20
5.494454151865164
 30
0.0
 10
184.8643978387584
 20
5.99968598167549
 30
0.0
 10
184.7509629709552
 20
6.251346477676931
 30
0.0
 10
184.3956531353237
 20
6.979790085963641
 30
0.0
 10
184.135816561727
 20
7.438283986866805
 30
0.0
 10
183.7107182212218
 20
8.087799175813993
 30
0.0
 10
183.5639241816584
 20
8.29642186333635
 30
0.0
 10
183.26539914666
 20
8.691984010114663
 30
0.0
 10
183.1129182008662
 20
8.880080673460153
 30
0.0
 10
182.6458437112344
 20
9.417170211871198
 30
0.0
 10
182.3216573258508
 20
9.739202105234007
 30
0.0
 10
181.9842306780569
 20
10.02669213764852
 30
0.0
  0
SPLINE
  5
1FC
330
1B8
100
AcDbEntity
  8
0
  6
Continuous
 62
     7
370
    25
100
AcDbSpline
210
0.0
220
0.0
230
1.0
 70
     8
 71
     3
 72
    20
 73
    16
 74
     0
 42
0.000000001
 43
0.00000001
 40
0.0
 40
0.0
 40
0.0
 40
0.0
 40
0.1249999999999999
 40
0.1249999999999999
 40
0.2499999999999998
 40
0.2499999999999998
 40
0.3749999999999997
 40
0.3749999999999997
 40
0.4999999999999996
 40
0.4999999999999996
 40
0.6249999999999994
 40
0.6249999999999994
 40
0.7499999999999993
 40
0.7499999999999993
 40
1.0
 40
1.0
 40
1.0
 40
1.0
 10
-160.7607751582056
 20
5.000000000000001
 30
0.0
 10
-160.7350002597138
 20
4.906005661528436
 30
0.0
 10
-160.7019072279234
 20
4.815389524810244
 30
0.0
 10
-160.6174330617987
 20
4.642346302240973
 30
0.0
 10
-160.5653848619814
 20
4.559162693775169
 30
0.0
 10
-160.440371766085
 20
4.412812767164344
 30
0.0
 10
-160.3656730189732
 20
4.347926750648822
 30
0.0
 10
-160.1954660914941
 20
4.255408033098738
 30
0.0
 10
-160.0981514862508
 20
4.228008579136651
 30
0.0
 10
-159.9022028807346
 20
4.227945708619313
 30
0.0
 10
-159.8055779236582
 20
4.254961776107229
 30
0.0
 10
-159.6345595031909
 20
4.347680026927333
 30
0.0
 10
-159.5605018948749
 20
4.411889783605936
 30
0.0
 10
-159.3716138631184
 20
4.632718229974149
 30
0.0
 10
-159.2907921467938
 20
4.811947475885148
 30
0.0
 10
-159.2392248417944
 20
4.999999999999996
 30
0.0
  0
SPLINE
  5
1FE
330
1B8
100
AcDbEntity
  8
0
  6
Continuous
 62
     7
370
    25
100
AcDbSpline
210
0.0
220
0.0
230
1.0
 70
     8
 71
     3
 72
    20
 73
    16
 74
     0
 42
0.000000001
 43
0.00000001
 40
0.0
 40
0.0
 40
0.0
 40
0.0
 40
0.1249999999999971
 40
0.1249999999999971
 40
0.2499999999999943
 40
0.2499999999999943
 40
0.3749999999999915
 40
0.3749999999999915
 40
0.4999999999999886
 40
0.4999999999999886
 40
0.6249999999999857
 40
0.6249999999999857
 40
0.7499999999999829
 40
0.7499999999999829
 40
1.0
 40
1.0
 40
1.0
 40
1.0
 10
159.2392248417943
 20
5.000000000000001
 30
0.0
 10
159.2649997402861
 20
4.906005661528414
 30
0.0
 10
159.2980927720765
 20
4.815389524810206
 30
0.0
 10
159.3825669382013
 20
4.642346302240898
 30
0.0
 10
159.4346151380184
 20
4.559162693775091
 30
0.0
 10
159.559628233915
 20
4.41281276716423
 30
0.0
 10
159.6343269810268
 20
4.347926750648674
 30
0.0
 10
159.8045339085059
 20
4.255408033098564
 30
0.0
 10
159.9018485137492
 20
4.228008579136469
 30
0.0
 10
160.0977971192654
 20
4.227945708619132
 30
0.0
 10
160.1944220763418
 20
4.254961776107069
 30
0.0
 10
160.3654404968094
 20
4.347680026927205
 30
0.0
 10
160.4394981051253
 20
4.411889783605818
 30
0.0
 10
160.6283861368817
 20
4.632718229974087
 30
0.0
 10
160.7092078532064
 20
4.811947475885113
 30
0.0
 10
160.7607751582057
 20
5.000000000000003
 30
0.0
  0
SPLINE
  5
1FF
330
1B8
100
AcDbEntity
  8
0
  6
Continuous
 62
     7
370
    25
100
AcDbSpline
210
0.0
220
0.0
230
1.0
 70
    24
 71
     3
 72
    12
 73
     8
 74
     0
 42
0.000000001
 43
0.00000001
 40
0.0
 40
0.0
 40
0.0
 40
0.0
 40
0.4999999999999347
 40
0.4999999999999347
 40
0.7499999999999674
 40
0.7499999999999674
 40
1.0
 40
1.0
 40
1.0
 40
1.0
 10
185.8399543518162
 20
-0.0000000000064601
 30
0.0
 10
185.8162229323394
 20
-0.0000000000064601
 30
0.0
 10
185.7874366261692
 20
0.0
 30
0.0
 10
185.7310110294738
 20
0.0
 30
0.0
 10
185.7099242475029
 20
0.0
 30
0.0
 10
185.6609903853225
 20
0.0
 30
0.0
 10
185.6322919134968
 20
0.0
 30
0.0
 10
185.6000585511034
 20
0.0
 30
0.0
  0
LINE
  5
200
330
1B8
100
AcDbEntity
  8
0
  6
Continuous
 62
     7
370
    25
100
AcDbLine
 10
151.4904412759
 20
26.1826274553
 30
0.0
 11
-151.4904412759
 21
26.1826274553
 31
0.0
  0
LINE
  5
201
330
1B8
100
AcDbEntity
  8
0
  6
Continuous
 62
     7
370
    25
100
AcDbLine
 10
168.0
 20
18.4598678778
 30
0.0
 11
168.0
 21
21.6801817399
 31
0.0
  0
LINE
  5
202
330
1B8
100
AcDbEntity
  8
0
  6
Continuous
 62
     7
370
    25
100
AcDbLine
 10
150.2039463869
 20
25.9067980995
 30
0.0
 11
150.2039463869
 21
24.0960516586
 31
0.0
  0
LINE
  5
203
330
1B8
100
AcDbEntity
  8
0
  6
Continuous
 62
     7
370
    25
100
AcDbLine
 10
-168.0
 20
18.4598678778
 30
0.0
 11
-168.0
 21
21.6801817399
 31
0.0
  0
LINE
  5
204
330
1B8
100
AcDbEntity
  8
0
  6
Continuous
 62
     7
370
    25
100
AcDbLine
 10
-150.2039463869
 20
24.0960516586
 30
0.0
 11
-150.2039463869
 21
25.9067980995
 31
0.0
  0
LINE
  5
205
330
1B8
100
AcDbEntity
  8
0
  6
Continuous
 62
     7
370
    25
100
AcDbLine
 10
-149.7898068455
 20
24.4034873585
 30
0.0
 11
149.7898068455
 21
24.4034873585
 31
0.0
  0
LINE
  5
206
330
1B8
100
AcDbEntity
  8
0
  6
Continuous
 62
     7
370
    25
100
AcDbLine
 10
154.1197262661
 20
22.2861148137
 30
0.0
 11
-154.1197262661
 21
22.2861148137
 31
0.0
  0
LINE
  5
207
330
1B8
100
AcDbEntity
  8
0
  6
Continuous
 62
     7
370
    25
100
AcDbLine
 10
149.7898068455
 20
24.4034873585
 30
0.0
 11
149.7898068455
 21
25.6766346993
 31
0.0
  0
LINE
  5
208
330
1B8
100
AcDbEntity
  8
0
  6
Continuous
 62
     7
370
    25
100
AcDbLine
 10
-149.7898068455
 20
25.6766346993
 30
0.0
 11
-149.7898068455
 21
24.4034873585
 31
0.0
  0
LINE
  5
209
330
1B8
100
AcDbEntity
  8
0
  6
Continuous
 62
     7
370
    25
100
AcDbLine
 10
149.7898068455
 20
25.6766346993
 30
0.0
 11
-149.7898068455
 21
25.6766346993
 31
0.0
  0
LINE
  5
20A
330
1B8
100
AcDbEntity
  8
0
  6
Continuous
 62
     7
370
    25
100
AcDbLine
 10
-181.9842306781
 20
10.0266921376
 30
0.0
 11
181.9842306781
 21
10.0266921376
 31
0.0
  0
LINE
  5
20B
330
1B8
100
AcDbEntity
  8
0
  6
Continuous
 62
     7
370
    25
100
AcDbLine
 10
-189.9554847021
 20
0.0
 30
0.0
 11
-185.8399543518
 21
0.0
 31
0.0
  0
LINE
  5
20C
330
1B8
100
AcDbEntity
  8
0
  6
Continuous
 62
     7
370
    25
100
AcDbLine
 10
185.8399543518
 20
0.0
 30
0.0
 11
189.9554847021
 21
0.0
 31
0.0
  0
LINE
  5
20D
330
1B8
100
AcDbEntity
  8
0
  6
Continuous
 62
     7
370
    25
100
AcDbLine
 10
-185.6000585511
 20
0.0
 30
0.0
 11
185.6000585511
 21
0.0
 31
0.0
  0
LINE
  5
20E
330
1B8
100
AcDbEntity
  8
0
  6
Continuous
 62
     7
370
    25
100
AcDbLine
 10
-160.7607751582
 20
5.0
 30
0.0
 11
-159.2392248418
 21
5.0
 31
0.0
  0
LINE
  5
20F
330
1B8
100
AcDbEntity
  8
0
  6
Continuous
 62
     7
370
    25
100
AcDbLine
 10
159.2392248418
 20
5.0
 30
0.0
 11
160.7607751582
 21
5.0
 31
0.0
  0
ARC
  5
210
330
1B8
100
AcDbEntity
  8
0
  6
Continuous
 62
     7
370
    25
100
AcDbCircle
 10
150.4390079815
 20
23.7246372623
 30
0.0
 40
0.439548185078433
100
AcDbArc
 50
122.3289952752
 51
131.3308338312
  0
ARC
  5
211
330
1B8
100
AcDbEntity
  8
0
  6
Continuous
 62
     7
370
    25
100
AcDbCircle
 10
153.4945485198
 20
22.5785541939
 30
0.0
 40
0.6901941796535633
100
AcDbArc
 50
334.9312183151
 51
358.5660000869
  0
ARC
  5
212
330
1B8
100
AcDbEntity
  8
0
  6
Continuous
 62
     7
370
    25
100
AcDbCircle
 10
130.4134699917
 20
-79.6095841099
 30
0.0
 40
108.0387148385625
100
AcDbArc
 50
69.6411551493
 51
77.2895865303
  0
ARC
  5
213
330
1B8
100
AcDbEntity
  8
0
  6
Continuous
 62
     7
370
    25
100
AcDbCircle
 10
130.4134699917
 20
-82.829897972
 30
0.0
 40
108.0387148385624
100
AcDbArc
 50
69.6411551493
 51
77.2895865303
  0
ARC
  5
214
330
1B8
100
AcDbEntity
  8
0
  6
Continuous
 62
     7
370
    25
100
AcDbCircle
 10
-130.4134699917
 20
-82.829897972
 30
0.0
 40
108.0387148385676
100
AcDbArc
 50
102.7104134697
 51
110.3588448507
  0
ARC
  5
215
330
1B8
100
AcDbEntity
  8
0
  6
Continuous
 62
     7
370
    25
100
AcDbCircle
 10
-130.4134699917
 20
-79.6095841099
 30
0.0
 40
108.0387148385639
100
AcDbArc
 50
102.7104134697
 51
110.3588448507
  0
ARC
  5
216
330
1B8
100
AcDbEntity
  8
0
  6
Continuous
 62
     7
370
    25
100
AcDbCircle
 10
-150.4390079815
 20
23.7246372623
 30
0.0
 40
0.4395481850783287
100
AcDbArc
 50
48.6691661688
 51
57.6710047248
  0
ARC
  5
217
330
1B8
100
AcDbEntity
  8
0
  6
Continuous
 62
     7
370
    25
100
AcDbCircle
 10
-153.4945485198
 20
22.5785541939
 30
0.0
 40
0.6901941796533424
100
AcDbArc
 50
181.4339999131
 51
205.0687816849
  0
ARC
  5
218
330
1B8
100
AcDbEntity
  8
0
  6
Continuous
 62
     7
370
    25
100
AcDbCircle
 10
-146.8699643317
 20
21.0397626637
 30
0.0
 40
4.454225424017526
100
AcDbArc
 50
130.9592384522
 51
137.4004007872
  0
ARC
  5
219
330
1B8
100
AcDbEntity
  8
0
  6
Continuous
 62
     7
370
    25
100
AcDbCircle
 10
146.8699643317
 20
21.0397626637
 30
0.0
 40
4.45422542401734
100
AcDbArc
 50
42.5995992128
 51
49.0407615478
  0
ARC
  5
21A
330
1B8
100
AcDbEntity
  8
0
  6
Continuous
 62
     7
370
    25
100
AcDbCircle
 10
147.4823054066
 20
20.8624486215
 30
0.0
 40
4.226525550282376
100
AcDbArc
 50
49.9135385327
 51
56.909910345
  0
ARC
  5
21B
330
1B8
100
AcDbEntity
  8
0
  6
Continuous
 62
     7
370
    25
100
AcDbCircle
 10
-147.4823054066
 20
20.8624486215
 30
0.0
 40
4.226525550287023
100
AcDbArc
 50
123.090089655
 51
130.0864614672
  0
ARC
  5
21C
330
1B8
100
AcDbEntity
  8
0
  6
Continuous
 62
     7
370
    25
100
AcDbCircle
 10
151.5838853339
 20
22.9361665515
 30
0.0
 40
3.275497411312461
100
AcDbArc
 50
114.9161469433
 51
123.2112174525
  0
ARC
  5
21D
330
1B8
100
AcDbEntity
  8
0
  6
Continuous
 62
     7
370
    25
100
AcDbCircle
 10
-151.5838853339
 20
22.9361665515
 30
0.0
 40
3.27549741130451
100
AcDbArc
 50
56.7887825475
 51
65.0838530567
  0
ARC
  5
21E
330
1B8
100
AcDbEntity
  8
0
  6
Continuous
 62
     7
370
    25
100
AcDbCircle
 10
-167.5362132679
 20
18.4805198114
 30
0.0
 40
0.4642463088161713
100
AcDbArc
 50
182.5496363091
 51
218.0200227616
  0
ARC
  5
21F
330
1B8
100
AcDbEntity
  8
0
  6
Continuous
 62
     7
370
    25
100
AcDbCircle
 10
-130.4058891172
 20
-82.8513774523
 30
0.0
 40
107.7786544373199
100
AcDbArc
 50
102.7104134697
 51
110.3588448507
  0
ARC
  5
220
330
1B8
100
AcDbEntity
  8
0
  6
Continuous
 62
     7
370
    25
100
AcDbCircle
 10
167.5362132679
 20
18.4805198114
 30
0.0
 40
0.464246308816314
100
AcDbArc
 50
321.9799772384
 51
357.4503636909
  0
ARC
  5
221
330
1B8
100
AcDbEntity
  8
0
  6
Continuous
 62
     7
370
    25
100
AcDbCircle
 10
130.4058891172
 20
-82.8513774523
 30
0.0
 40
107.7786544373233
100
AcDbArc
 50
69.6411551493
 51
77.2895865303
  0
ARC
  5
222
330
1B8
100
AcDbEntity
  8
0
  6
Continuous
 62
     7
370
    25
100
AcDbCircle
 10
152.6695233661
 20
-24.2913341078
 30
0.0
 40
45.13401145665219
100
AcDbArc
 50
49.4958067836
 51
70.2757815177
  0
ARC
  5
223
330
1B8
100
AcDbEntity
  8
0
  6
Continuous
 62
     7
370
    25
100
AcDbCircle
 10
-152.6695233661
 20
-24.2913341078
 30
0.0
 40
45.13401145665242
100
AcDbArc
 50
109.7242184823
 51
130.5041932164
  0
ARC
  5
224
330
1B8
100
AcDbEntity
  8
0
  6
Continuous
 62
     7
370
    25
100
AcDbCircle
 10
151.9177739424
 20
23.2366452997
 30
0.0
 40
3.237559611111879
100
AcDbArc
 50
123.1213078119
 51
131.0923808715
  0
ARC
  5
225
330
1B8
100
AcDbEntity
  8
0
  6
Continuous
 62
     7
370
    25
100
AcDbCircle
 10
-151.9177739424
 20
23.2366452997
 30
0.0
 40
3.237559611105016
100
AcDbArc
 50
48.9076191285
 51
56.8786921881
  0
ARC
  5
226
330
1B8
100
AcDbEntity
  8
0
  6
Continuous
 62
     7
370
    25
100
AcDbCircle
 10
150.0427984434
 20
25.7491643699
 30
0.0
 40
0.2254263791704308
100
AcDbArc
 50
44.3684032548
 51
61.9717676393
  0
ARC
  5
227
330
1B8
100
AcDbEntity
  8
0
  6
Continuous
 62
     7
370
    25
100
AcDbCircle
 10
-150.0427984434
 20
25.7491643699
 30
0.0
 40
0.2254263791712619
100
AcDbArc
 50
118.0282323608
 51
135.6315967452
  0
ARC
  5
228
330
1B8
100
AcDbEntity
  8
0
  6
Continuous
 62
     7
370
    25
100
AcDbCircle
 10
130.2206403679
 20
-80.0398993552
 30
0.0
 40
108.5104565633017
100
AcDbArc
 50
70.8371686772
 51
77.2764680995
  0
ARC
  5
229
330
1B8
100
AcDbEntity
  8
0
  6
Continuous
 62
     7
370
    25
100
AcDbCircle
 10
-129.6055518215
 20
-82.3905910684
 30
0.0
 40
110.9389268920605
100
AcDbArc
 50
102.7660120169
 51
106.5858109823
  0
ARC
  5
22A
330
1B8
100
AcDbEntity
  8
0
  6
Continuous
 62
     7
370
    25
100
AcDbCircle
 10
-152.7008023664
 20
-24.2122912261
 30
0.0
 40
45.33187190954907
100
AcDbArc
 50
109.7242184823
 51
130.5041932164
  0
ARC
  5
22B
330
1B8
100
AcDbEntity
  8
0
  6
Continuous
 62
     7
370
    25
100
AcDbCircle
 10
-181.8570766186
 20
10.2856022998
 30
0.0
 40
0.2884486555687787
100
AcDbArc
 50
185.8544815461
 51
243.8437606933
  0
ARC
  5
22C
330
1B8
100
AcDbEntity
  8
0
  6
Continuous
 62
     7
370
    25
100
AcDbCircle
 10
152.7008023664
 20
-24.2122912261
 30
0.0
 40
45.33187190954958
100
AcDbArc
 50
49.4958067836
 51
70.2757815177
  0
ARC
  5
22D
330
1B8
100
AcDbEntity
  8
0
  6
Continuous
 62
     7
370
    25
100
AcDbCircle
 10
181.8570766186
 20
10.2856022998
 30
0.0
 40
0.2884486555642948
100
AcDbArc
 50
296.1562393068
 51
354.145518455
  0
ARC
  5
22E
330
1B8
100
AcDbEntity
  8
0
  6
Continuous
 62
     7
370
    25
100
AcDbCircle
 10
-155.2819140323
 20
-16.2295211739
 30
0.0
 40
39.98618868671514
100
AcDbArc
 50
108.5457614931
 51
142.872793514
  0
ARC
  5
22F
330
1B8
100
AcDbEntity
  8
0
  6
Continuous
 62
     7
370
    25
100
AcDbCircle
 10
155.2819140323
 20
-16.2295211739
 30
0.0
 40
39.98618868671534
100
AcDbArc
 50
37.127206486
 51
71.4542385069
  0
VIEWPORT
  5
366
330
1B8
100
AcDbEntity
  8
0
100
AcDbViewport
 10
0.0
 20
0.0
 30
0.0
 40
205.6
 41
156.0
 68
     1
 69
     1
 12
-13.0911322451
 22
0.9264697138
 13
0.0
 23
0.0
 14
10.0
 24
10.0
 15
10.0
 25
10.0
 16
0.0
 26
0.0
 36
1.0
 17
0.0
 27
0.0
 37
0.0
 42
50.0
 43
0.0
 44
0.0
 45
27.8940017838
 50
0.0
 51
0.0
 72
   100
 90
   557152
  1

281
     0
 71
     1
 74
     0
110
0.0
120
0.0
130
0.0
111
1.0
121
0.0
131
0.0
112
0.0
122
1.0
132
0.0
 79
     0
146
0.0
  0
ENDBLK
  5
1BB
330
1B8
100
AcDbEntity
  8
0
100
AcDbBlockEnd
  0
BLOCK
  5
232
330
230
100
AcDbEntity
  8
0
100
AcDbBlockBegin
  2
*Paper_Space4
 70
     0
 10
0.0
 20
0.0
 30
0.0
  3
*Paper_Space4
  1

  0
SPLINE
  5
238
330
230
100
AcDbEntity
  8
0
  6
Continuous
 62
     7
370
    25
100
AcDbSpline
210
0.0
220
0.0
230
1.0
 70
     8
 71
     3
 72
    18
 73
    14
 74
     0
 42
0.000000001
 43
0.00000001
 40
0.0
 40
0.0
 40
0.0
 40
0.0
 40
0.1250000000000007
 40
0.1250000000000007
 40
0.2500000000000014
 40
0.2500000000000014
 40
0.5000000000000006
 40
0.5000000000000006
 40
0.6250000000000003
 40
0.6250000000000003
 40
0.7500000000000002
 40
0.7500000000000002
 40
1.0
 40
1.0
 40
1.0
 40
1.0
 10
134.3188113564606
 20
-65.81246482545826
 30
0.0
 10
133.9972516361283
 20
-65.9445178549108
 30
0.0
 10
133.6734378332388
 20
-66.09062046086217
 30
0.0
 10
133.0203980174913
 20
-66.40926248507483
 30
0.0
 10
132.6905393707223
 20
-66.58227266761023
 30
0.0
 10
131.7105332025446
 20
-67.12837281922779
 30
0.0
 10
131.0636092192598
 20
-67.53104826237197
 30
0.0
 10
130.0976077011509
 20
-68.18405678194583
 30
0.0
 10
129.7744389883502
 20
-68.41140351932845
 30
0.0
 10
129.1396268885819
 20
-68.8741448709562
 30
0.0
 10
128.828431930005
 20
-69.10907828676677
 30
0.0
 10
127.9116589032672
 20
-69.82286794058672
 30
0.0
 10
127.3226870471333
 20
-70.31055062820734
 30
0.0
 10
126.753974864301
 20
-70.80788186677198
 30
0.0
  0
SPLINE
  5
23A
330
230
100
AcDbEntity
  8
0
  6
Continuous
 62
     7
370
    25
100
AcDbSpline
210
0.0
220
0.0
230
1.0
 70
     8
 71
     3
 72
    14
 73
    10
 74
     0
 42
0.000000001
 43
0.00000001
 40
0.0
 40
0.0
 40
0.0
 40
0.0
 40
0.1272729388732927
 40
0.2544060667183937
 40
0.444025691131997
 40
0.6343172284942203
 40
0.8008425213283235
 40
0.9524000552111236
 40
1.0
 40
1.0
 40
1.0
 40
1.0
 10
121.5430578973
 20
-77.18626589609548
 30
0.0
 10
121.9797062921902
 20
-76.94344363324343
 30
0.0
 10
122.85252341786
 20
-76.45806585104773
 30
0.0
 10
124.5218361720365
 20
-75.6657462735019
 30
0.0
 10
126.5188508255875
 20
-74.89923785916096
 30
0.0
 10
128.6096487143472
 20
-74.44836589274124
 30
0.0
 10
130.1827630470488
 20
-74.54505369658102
 30
0.0
 10
131.0033424625819
 20
-74.92858364737081
 30
0.0
 10
131.1956836047529
 20
-75.28382359498553
 30
0.0
 10
131.2416544003716
 20
-75.36872827446855
 30
0.0
  0
SPLINE
  5
244
330
230
100
AcDbEntity
  8
0
  6
Continuous
 62
     7
370
    25
100
AcDbSpline
210
0.0
220
0.0
230
1.0
 70
     8
 71
     3
 72
    18
 73
    14
 74
     0
 42
0.000000001
 43
0.00000001
 40
0.0
 40
0.0
 40
0.0
 40
0.0
 40
0.2500000000000033
 40
0.2500000000000033
 40
0.3750000000000033
 40
0.3750000000000033
 40
0.5000000000000032
 40
0.5000000000000032
 40
0.7500000000000007
 40
0.7500000000000007
 40
0.8750000000000003
 40
0.8750000000000003
 40
1.0
 40
1.0
 40
1.0
 40
1.0
 10
126.5587517084412
 20
-70.6129098892505
 30
0.0
 10
127.1307391070805
 20
-70.10629466295717
 30
0.0
 10
127.7234099462743
 20
-69.6099873070872
 30
0.0
 10
128.6462847708372
 20
-68.88419206412554
 30
0.0
 10
128.959606452125
 20
-68.64541265403909
 30
0.0
 10
129.5988471728668
 20
-68.17528632739167
 30
0.0
 10
129.9243990215276
 20
-67.94434979175337
 30
0.0
 10
130.8975133665653
 20
-67.28133891065791
 30
0.0
 10
131.5492558692963
 20
-66.87287068445869
 30
0.0
 10
132.5365316863897
 20
-66.31905379222572
 30
0.0
 10
132.8688503400883
 20
-66.14360780660057
 30
0.0
 10
133.5271631190651
 20
-65.82022923945624
 30
0.0
 10
133.8536304202966
 20
-65.67190492760987
 30
0.0
 10
134.177859316131
 20
-65.53773356361339
 30
0.0
  0
SPLINE
  5
245
330
230
100
AcDbEntity
  8
0
  6
Continuous
 62
     7
370
    25
100
AcDbSpline
210
0.0
220
0.0
230
1.0
 70
     8
 71
     3
 72
    10
 73
     6
 74
     0
 42
0.000000001
 43
0.00000001
 40
0.0
 40
0.0
 40
0.0
 40
0.0
 40
0.5
 40
0.5
 40
1.0
 40
1.0
 40
1.0
 40
1.0
 10
134.177859316131
 20
-65.53773356361339
 30
0.0
 10
134.2198866683023
 20
-65.56199543759335
 30
0.0
 10
134.2609485838006
 20
-65.60767815080978
 30
0.0
 10
134.3145904836074
 20
-65.7115776334502
 30
0.0
 10
134.3266422717257
 20
-65.76928402251976
 30
0.0
 10
134.3188113564606
 20
-65.81246482545826
 30
0.0
  0
SPLINE
  5
246
330
230
100
AcDbEntity
  8
0
  6
Continuous
 62
     7
370
    25
100
AcDbSpline
210
0.0
220
0.0
230
1.0
 70
     8
 71
     3
 72
    18
 73
    14
 74
     0
 42
0.000000001
 43
0.00000001
 40
0.0
 40
0.0
 40
0.0
 40
0.0
 40
0.1250000000000019
 40
0.1250000000000019
 40
0.2500000000000038
 40
0.2500000000000038
 40
0.5000000000000056
 40
0.5000000000000056
 40
0.625000000000005
 40
0.625000000000005
 40
0.7500000000000044
 40
0.7500000000000044
 40
1.0
 40
1.0
 40
1.0
 40
1.0
 10
-134.177859316131
 20
89.38072527067727
 30
0.0
 10
-134.4102761183383
 20
89.19355191320905
 30
0.0
 10
-134.636524904596
 20
88.98737268414483
 30
0.0
 10
-135.0755113363618
 20
88.53737971181901
 30
0.0
 10
-135.2884386065313
 20
88.29301054755356
 30
0.0
 10
-135.8932964174522
 20
87.51842843947699
 30
0.0
 10
-136.2559526783005
 20
86.94307427810591
 30
0.0
 10
-136.7347656374723
 20
85.99470928088321
 30
0.0
 10
-136.884239692821
 20
85.66212519879468
 30
0.0
 10
-137.1553503369719
 20
84.97948190248226
 30
0.0
 10
-137.2770032467868
 20
84.63005446583395
 30
0.0
 10
-137.6014509915084
 20
83.55879462310067
 30
0.0
 10
-137.7640030320746
 20
82.81418497004599
 30
0.0
 10
-137.872460207426
 20
82.03997944166828
 30
0.0
  0
SPLINE
  5
248
330
230
100
AcDbEntity
  8
0
  6
Continuous
 62
     7
370
    25
100
AcDbSpline
210
0.0
220
0.0
230
1.0
 70
     8
 71
     3
 72
    10
 73
     6
 74
     0
 42
0.000000001
 43
0.00000001
 40
0.0
 40
0.0
 40
0.0
 40
0.0
 40
0.2797426102579948
 40
0.6232258467665118
 40
1.0
 40
1.0
 40
1.0
 40
1.0
 10
131.2390599901061
 20
-75.76269667794593
 30
0.0
 10
131.1490134496126
 20
-75.53944989443099
 30
0.0
 10
130.9484028547671
 20
-75.04208853226422
 30
0.0
 10
130.0420505978931
 20
-74.55157414759468
 30
0.0
 10
129.0366365846389
 20
-74.55410117240616
 30
0.0
 10
128.5106940273141
 20
-74.55542308544324
 30
0.0
  0
SPLINE
  5
249
330
230
100
AcDbEntity
  8
0
  6
Continuous
 62
     7
370
    25
100
AcDbSpline
210
0.0
220
0.0
230
1.0
 70
     8
 71
     3
 72
    12
 73
     8
 74
     0
 42
0.000000001
 43
0.00000001
 40
0.0
 40
0.0
 40
0.0
 40
0.0
 40
0.4999999999999347
 40
0.4999999999999347
 40
0.7499999999999674
 40
0.7499999999999674
 40
1.0
 40
1.0
 40
1.0
 40
1.0
 10
131.408691937572
 20
-75.63864731271748
 30
0.0
 10
131.3919112899328
 20
-75.67680437925912
 30
0.0
 10
131.3715562976299
 20
-75.71059185423742
 30
0.0
 10
131.3316573755742
 20
-75.74982271895743
 30
0.0
 10
131.3167467690491
 20
-75.76096394820075
 30
0.0
 10
131.2821453032717
 20
-75.77361861976193
 30
0.0
 10
131.2618524192341
 20
-75.7758544672109
 30
0.0
 10
131.2390599901053
 20
-75.7626966779428
 30
0.0
  0
SPLINE
  5
24B
330
230
100
AcDbEntity
  8
0
  6
Continuous
 62
     7
370
    25
100
AcDbSpline
210
0.0
220
0.0
230
1.0
 70
     8
 71
     3
 72
    16
 73
    12
 74
     0
 42
0.000000001
 43
0.00000001
 40
0.0
 40
0.0
 40
0.0
 40
0.0
 40
0.2499999999999999
 40
0.2499999999999999
 40
0.4999999999999998
 40
0.4999999999999998
 40
0.7499999999999997
 40
0.7499999999999997
 40
0.8749999999999998
 40
0.8749999999999998
 40
1.0
 40
1.0
 40
1.0
 40
1.0
 10
90.79458314636635
 20
-81.13909608503636
 30
0.0
 10
90.49683629594996
 20
-81.10267209277109
 30
0.0
 10
90.20924487717305
 20
-81.06779007792974
 30
0.0
 10
89.65366662002796
 20
-81.00096429189423
 30
0.0
 10
89.38558053631144
 20
-80.96897867466576
 30
0.0
 10
88.87326651861606
 20
-80.90979826995363
 30
0.0
 10
88.62752928760841
 20
-80.88223643128565
 30
0.0
 10
88.29892244943592
 20
-80.85109844754601
 30
0.0
 10
88.19573368979314
 20
-80.84237045780274
 30
0.0
 10
88.01345346997738
 20
-80.83235847556105
 30
0.0
 10
87.93126430930876
 20
-80.83026123647451
 30
0.0
 10
87.89135643616828
 20
-80.8404458928699
 30
0.0
  0
SPLINE
  5
24E
330
230
100
AcDbEntity
  8
0
  6
Continuous
 62
     7
370
    25
100
AcDbSpline
210
0.0
220
0.0
230
1.0
 70
     8
 71
     3
 72
    16
 73
    12
 74
     0
 42
0.000000001
 43
0.00000001
 40
0.0
 40
0.0
 40
0.0
 40
0.0
 40
0.125
 40
0.125
 40
0.25
 40
0.25
 40
0.5
 40
0.5
 40
0.75
 40
0.75
 40
1.0
 40
1.0
 40
1.0
 40
1.0
 10
89.17174752353901
 20
-81.40958202958818
 30
0.0
 10
89.34618640998319
 20
-81.45919665009811
 30
0.0
 10
89.52555912665674
 20
-81.50449215427982
 30
0.0
 10
89.87441162985355
 20
-81.58854581549214
 30
0.0
 10
90.04532764673112
 20
-81.62737869265098
 30
0.0
 10
90.55281228692735
 20
-81.73802818048709
 30
0.0
 10
90.88531926161346
 20
-81.80415932597724
 30
0.0
 10
91.53317175454659
 20
-81.92358682623268
 30
0.0
 10
91.84942837734589
 20
-81.97698433455258
 30
0.0
 10
92.46984948185941
 20
-82.07263288264035
 30
0.0
 10
92.7739420653636
 20
-82.11484969482359
 30
0.0
 10
93.07168891578002
 20
-82.15127368708887
 30
0.0
  0
SPLINE
  5
251
330
230
100
AcDbEntity
  8
0
  6
Continuous
 62
     7
370
    25
100
AcDbSpline
210
0.0
220
0.0
230
1.0
 70
     8
 71
     3
 72
    16
 73
    12
 74
     0
 42
0.000000001
 43
0.00000001
 40
0.0
 40
0.0
 40
0.0
 40
0.0
 40
0.125000000000006
 40
0.125000000000006
 40
0.2500000000000119
 40
0.2500000000000119
 40
0.500000000000008
 40
0.500000000000008
 40
0.750000000000004
 40
0.750000000000004
 40
1.0
 40
1.0
 40
1.0
 40
1.0
 10
87.82306944966825
 20
-80.8049075188522
 30
0.0
 10
87.85335590294383
 20
-80.78614354078225
 30
0.0
 10
87.92715729156787
 20
-80.77831294010566
 30
0.0
 10
88.09844572278544
 20
-80.76966047110893
 30
0.0
 10
88.19811354987247
 20
-80.76931297069586
 30
0.0
 10
88.51991765197151
 20
-80.77369391363764
 30
0.0
 10
88.76644575893339
 20
-80.78396898783565
 30
0.0
 10
89.28450022569794
 20
-80.80943202087174
 30
0.0
 10
89.55766672700375
 20
-80.8249358835769
 30
0.0
 10
90.12696025727335
 20
-80.85922728614982
 30
0.0
 10
90.42320486457295
 20
-80.87806338593776
 30
0.0
 10
90.7315110843702
 20
-80.89867797472589
 30
0.0
  0
SPLINE
  5
253
330
230
100
AcDbEntity
  8
0
  6
Continuous
 62
     7
370
    25
100
AcDbSpline
210
0.0
220
0.0
230
1.0
 70
     8
 71
     3
 72
    16
 73
    12
 74
     0
 42
0.000000001
 43
0.00000001
 40
0.0
 40
0.0
 40
0.0
 40
0.0
 40
0.1250000000000064
 40
0.1250000000000064
 40
0.2500000000000128
 40
0.2500000000000128
 40
0.5000000000000085
 40
0.5000000000000085
 40
0.7500000000000043
 40
0.7500000000000043
 40
1.0
 40
1.0
 40
1.0
 40
1.0
 10
-124.5192977518454
 20
41.77773182173818
 30
0.0
 10
-124.6593912097371
 20
41.89485402891124
 30
0.0
 10
-124.7981912116468
 20
42.02541679991526
 30
0.0
 10
-125.063304545282
 20
42.28599864529391
 30
0.0
 10
-125.1902496424236
 20
42.41716700226399
 30
0.0
 10
-125.5613615114339
 20
42.81279793495146
 30
0.0
 10
-125.7968793882071
 20
43.08080208382392
 30
0.0
 10
-126.2426742055654
 20
43.61175739881434
 30
0.0
 10
-126.4536294801692
 20
43.87573108849489
 30
0.0
 10
-126.8555104756013
 20
44.40208680590005
 30
0.0
 10
-127.0463502231852
 20
44.66443851893543
 30
0.0
 10
-127.2266960303969
 20
44.9259167408253
 30
0.0
  0
LWPOLYLINE
  5
254
330
230
100
AcDbEntity
  8
0
  6
Continuous
 62
     7
370
    25
100
AcDbPolyline
 90
        4
 70
   128
 43
0.0
 10
87.7612656592
 20
-80.8073039188
 10
87.7759479112
 20
-80.8180907716
 10
87.796609008
 20
-80.8172896516
 10
87.8230694497
 20
-80.8049075189
  0
LWPOLYLINE
  5
25A
330
230
100
AcDbEntity
  8
0
  6
Continuous
 62
     7
370
    25
100
AcDbPolyline
 90
        9
 70
   128
 43
0.0
 10
-127.2552653964
 20
44.7384021008
 10
-127.2733437626
 20
44.7502850186
 10
-127.2855593478
 20
44.7671081827
 10
-127.291442714
 20
44.7882250884
 10
-127.2907677666
 20
44.812824225
 10
-127.2835604436
 20
44.8399602612
 10
-127.2700977184
 20
44.8685903746
 10
-127.2508969558
 20
44.8976143259
 10
-127.2266960304
 20
44.9259167408
  0
SPLINE
  5
25B
330
230
100
AcDbEntity
  8
0
  6
Continuous
 62
     7
370
    25
100
AcDbSpline
210
0.0
220
0.0
230
1.0
 70
     8
 71
     3
 72
    16
 73
    12
 74
     0
 42
0.000000001
 43
0.00000001
 40
0.0
 40
0.0
 40
0.0
 40
0.0
 40
0.125
 40
0.125
 40
0.25
 40
0.25
 40
0.5
 40
0.5
 40
0.75
 40
0.75
 40
1.0
 40
1.0
 40
1.0
 40
1.0
 10
-124.5291016661605
 20
41.78727436518785
 30
0.0
 10
-124.6692629451134
 20
41.9014107304121
 30
0.0
 10
-124.8065137728068
 20
42.02599350014637
 30
0.0
 10
-125.0689500776734
 20
42.27271090296518
 30
0.0
 10
-125.1948686611594
 20
42.3962437671587
 30
0.0
 10
-125.5637634866807
 20
42.76776492302872
 30
0.0
 10
-125.798645388128
 20
43.01765860372019
 30
0.0
 10
-126.2468155872952
 20
43.51295393505495
 30
0.0
 10
-126.4606372627305
 20
43.75916774554346
 30
0.0
 10
-126.8711006195651
 20
44.25002591262174
 30
0.0
 10
-127.0676670816207
 20
44.49464229309442
 30
0.0
 10
-127.2552653963515
 20
44.73840210078878
 30
0.0
  0
LWPOLYLINE
  5
25C
330
230
100
AcDbEntity
  8
0
  6
Continuous
 62
     7
370
    25
100
AcDbPolyline
 90
        9
 70
   128
 43
0.0
 10
-134.0790392982
 20
55.9977476485
 10
-134.1064658666
 20
55.9746571403
 10
-134.1287683126
 20
55.9506448052
 10
-134.1450895657
 20
55.9266334238
 10
-134.1548024092
 20
55.9035457398
 10
-134.1575335842
 20
55.8822690002
 10
-134.1531781329
 20
55.8636208581
 10
-134.141903433
 20
55.8483179511
 10
-134.124142765
 20
55.8369483614
  0
LWPOLYLINE
  5
25F
330
230
100
AcDbEntity
  8
0
  6
Continuous
 62
     7
370
    25
100
AcDbPolyline
 90
        9
 70
   128
 43
0.0
 10
-137.8724602074
 20
82.0399794417
 10
-137.9031310819
 20
82.0391614346
 10
-137.9285531572
 20
82.0365656809
 10
-137.947749477
 20
82.0322919339
 10
-137.9599823377
 20
82.0265044313
 10
-137.9647816372
 20
82.0194255836
 10
-137.9619629412
 20
82.0113274269
 10
-137.9516345705
 20
82.0025211688
 10
-137.9341934387
 20
81.993345229
  0
SPLINE
  5
261
330
230
100
AcDbEntity
  8
0
  6
Continuous
 62
     7
370
    25
100
AcDbSpline
210
0.0
220
0.0
230
1.0
 70
     8
 71
     3
 72
    18
 73
    14
 74
     0
 42
0.000000001
 43
0.00000001
 40
0.0
 40
0.0
 40
0.0
 40
0.0
 40
0.2500000000000006
 40
0.2500000000000006
 40
0.3750000000000009
 40
0.3750000000000009
 40
0.5000000000000012
 40
0.5000000000000012
 40
0.7500000000000017
 40
0.7500000000000017
 40
0.8750000000000008
 40
0.8750000000000008
 40
1.0
 40
1.0
 40
1.0
 40
1.0
 10
-137.9341934386584
 20
81.99334522895698
 30
0.0
 10
-137.8315476081638
 20
82.75973084574277
 30
0.0
 10
-137.6752675320293
 20
83.49720118107743
 30
0.0
 10
-137.3606933689478
 20
84.55863283911799
 30
0.0
 10
-137.2424101916556
 20
84.90493185578086
 30
0.0
 10
-136.9781650571108
 20
85.58159696293693
 30
0.0
 10
-136.8322199519597
 20
85.91125271130714
 30
0.0
 10
-136.3638409321636
 20
86.85153258441426
 30
0.0
 10
-136.0080429696593
 20
87.42227150202339
 30
0.0
 10
-135.4131224985556
 20
88.19067689466164
 30
0.0
 10
-135.2034722214254
 20
88.43308189187944
 30
0.0
 10
-134.7710915555745
 20
88.87910773188662
 30
0.0
 10
-134.5480726379733
 20
89.08339798655595
 30
0.0
 10
-134.3188113564606
 20
89.26873377058371
 30
0.0
  0
SPLINE
  5
262
330
230
100
AcDbEntity
  8
0
  6
Continuous
 62
     7
370
    25
100
AcDbSpline
210
0.0
220
0.0
230
1.0
 70
     8
 71
     3
 72
    10
 73
     6
 74
     0
 42
0.000000001
 43
0.00000001
 40
0.0
 40
0.0
 40
0.0
 40
0.0
 40
0.5
 40
0.5
 40
1.0
 40
1.0
 40
1.0
 40
1.0
 10
-134.3188113564606
 20
89.26873377058372
 30
0.0
 10
-134.3266389747991
 20
89.32093396955402
 30
0.0
 10
-134.314685778487
 20
89.36460078899424
 30
0.0
 10
-134.2610324507972
 20
89.40671996220979
 30
0.0
 10
-134.2198700035717
 20
89.40497752431666
 30
0.0
 10
-134.1778593161313
 20
89.38072527068114
 30
0.0
  0
LINE
  5
264
330
230
100
AcDbEntity
  8
0
  6
Continuous
 62
     7
370
    25
100
AcDbLine
 10
-124.1765610694
 20
41.538584478
 30
0.0
 11
87.7701764682
 21
-80.8156627191
 31
0.0
  0
LINE
  5
265
330
230
100
AcDbEntity
  8
0
  6
Continuous
 62
     7
370
    25
100
AcDbLine
 10
87.7957949062
 20
-80.8287054194
 30
0.0
 11
88.8141793726
 21
-81.2813791428
 31
0.0
  0
LINE
  5
266
330
230
100
AcDbEntity
  8
0
  6
Continuous
 62
     7
370
    25
100
AcDbLine
 10
105.7408414831
 20
-82.3317920269
 30
0.0
 11
103.4637357137
 21
-81.3196144248
 31
0.0
  0
LINE
  5
267
330
230
100
AcDbEntity
  8
0
  6
Continuous
 62
     7
370
    25
100
AcDbLine
 10
-137.8724602074
 20
82.0399794417
 30
0.0
 11
126.5587517084
 21
-70.6129098893
 31
0.0
  0
LINE
  5
268
330
230
100
AcDbEntity
  8
0
  6
Continuous
 62
     7
370
    25
100
AcDbLine
 10
-127.2266960304
 20
44.9259167408
 30
0.0
 11
90.7315110844
 21
-80.8986779747
 31
0.0
  0
LINE
  5
269
330
230
100
AcDbEntity
  8
0
  6
Continuous
 62
     7
370
    25
100
AcDbLine
 10
-134.1778593161
 20
89.3807252707
 30
0.0
 11
134.1778593161
 21
-65.5377335636
 31
0.0
  0
LINE
  5
26A
330
230
100
AcDbEntity
  8
0
  6
Continuous
 62
     7
370
    25
100
AcDbLine
 10
129.2258904816
 20
-74.6005186584
 30
0.0
 11
131.2390599901
 21
-75.7626966779
 31
0.0
  0
LINE
  5
26B
330
230
100
AcDbEntity
  8
0
  6
Continuous
 62
     7
370
    25
100
AcDbLine
 10
87.8913564362
 20
-80.8404458929
 30
0.0
 11
89.1717475235
 21
-81.4095820296
 31
0.0
  0
LINE
  5
26C
330
230
100
AcDbEntity
  8
0
  6
Continuous
 62
     8
370
    25
100
AcDbLine
 10
131.2416544004
 20
-75.3687282745
 30
0.0
 11
131.4086919376
 21
-75.6386473127
 31
0.0
  0
ARC
  5
26D
330
230
100
AcDbEntity
  8
0
  6
Continuous
 62
     7
370
    25
100
AcDbCircle
 10
98.8771279028
 20
-40.1000465807
 30
0.0
 40
41.47396465821127
100
AcDbArc
 50
276.3493304532
 51
312.2334474037
  0
ARC
  5
26E
330
230
100
AcDbEntity
  8
0
  6
Continuous
 62
     7
370
    25
100
AcDbCircle
 10
91.0234499868
 20
-58.3341441946
 30
0.0
 40
43.93647227064298
100
AcDbArc
 50
336.8055539759
 51
350.2001115726
  0
ARC
  5
26F
330
230
100
AcDbEntity
  8
0
  6
Continuous
 62
     7
370
    25
100
AcDbCircle
 10
101.8795330239
 20
-43.6359486409
 30
0.0
 40
38.88801869951402
100
AcDbArc
 50
275.6984603586
 51
300.3741657265
  0
ARC
  5
270
330
230
100
AcDbEntity
  8
0
  6
Continuous
 62
     7
370
    25
100
AcDbCircle
 10
-92.8228125331
 20
75.3047017039
 30
0.0
 40
45.55035369552434
100
AcDbArc
 50
171.4968117976
 51
205.0785002466
  0
ARC
  5
271
330
230
100
AcDbEntity
  8
0
  6
Continuous
 62
     7
370
    25
100
AcDbCircle
 10
98.8035790863
 20
-40.0391053842
 30
0.0
 40
41.29294284982223
100
AcDbArc
 50
276.3493304532
 51
312.2334474037
  0
ARC
  5
272
330
230
100
AcDbEntity
  8
0
  6
Continuous
 62
     7
370
    25
100
AcDbCircle
 10
97.8963456453
 20
-21.6493319044
 30
0.0
 40
59.68098410757354
100
AcDbArc
 50
263.1048837183
 51
275.2624515757
  0
ARC
  5
273
330
230
100
AcDbEntity
  8
0
  6
Continuous
 62
     7
370
    25
100
AcDbCircle
 10
-75.4772239011
 20
84.6099739282
 30
0.0
 40
65.21374288071793
100
AcDbArc
 50
206.0238567416
 51
217.4827768649
  0
ARC
  5
274
330
230
100
AcDbEntity
  8
0
  6
Continuous
 62
     7
370
    25
100
AcDbCircle
 10
127.0280174535
 20
-70.3382629166
 30
0.0
 40
0.5437290677276416
100
AcDbArc
 50
210.3391410252
 51
239.7346244089
  0
ARC
  5
275
330
230
100
AcDbEntity
  8
0
  6
Continuous
 62
     7
370
    25
100
AcDbCircle
 10
103.6227131903
 20
-81.1192525202
 30
0.0
 40
0.2557708562608876
100
AcDbArc
 50
170.891263743
 51
231.5697010325
  0
ARC
  5
276
330
230
100
AcDbEntity
  8
0
  6
Continuous
 62
     7
370
    25
100
AcDbCircle
 10
97.9767058221
 20
-21.7467865606
 30
0.0
 40
59.82498906620803
100
AcDbArc
 50
263.1048837183
 51
275.2624515757
  0
ARC
  5
277
330
230
100
AcDbEntity
  8
0
  6
Continuous
 62
     7
370
    25
100
AcDbCircle
 10
100.2538115915
 20
-22.7589641627
 30
0.0
 40
59.82498906621196
100
AcDbArc
 50
263.1048837183
 51
275.2624515757
  0
ARC
  5
278
330
230
100
AcDbEntity
  8
0
  6
Continuous
 62
     7
370
    25
100
AcDbCircle
 10
90.9364771845
 20
-80.9733888265
 30
0.0
 40
0.2181577722279796
100
AcDbArc
 50
159.9730271147
 51
229.4267728691
  0
ARC
  5
279
330
230
100
AcDbEntity
  8
0
  6
Continuous
 62
     7
370
    25
100
AcDbCircle
 10
87.946204491
 20
-80.6516794442
 30
0.0
 40
0.1965733482705621
100
AcDbArc
 50
231.2144229693
 51
253.7982277294
  0
ARC
  5
27A
330
230
100
AcDbEntity
  8
0
  6
Continuous
 62
     7
370
    25
100
AcDbCircle
 10
-122.9577156528
 20
43.6500777535
 30
0.0
 40
2.438076688790715
100
AcDbArc
 50
230.1710708709
 51
242.7641858906
  0
ARC
  5
27B
330
230
100
AcDbEntity
  8
0
  6
Continuous
 62
     7
370
    25
100
AcDbCircle
 10
89.1695656169
 20
-81.4044854667
 30
0.0
 40
0.0055439760371131
100
AcDbArc
 50
215.8166050865
 51
293.1764138254
  0
ARC
  5
27C
330
230
100
AcDbEntity
  8
0
  6
Continuous
 62
     7
370
    25
100
AcDbCircle
 10
87.8633988775
 20
-80.6782956297
 30
0.0
 40
0.1645427996659816
100
AcDbArc
 50
231.6320624702
 51
279.7826186808
  0
ARC
  5
27D
330
230
100
AcDbEntity
  8
0
  6
Continuous
 62
     7
370
    25
100
AcDbCircle
 10
89.8545714265
 20
-78.9423867143
 30
0.0
 40
2.559941641178461
100
AcDbArc
 50
246.0203336073
 51
254.5299771757
  0
ARC
  5
27E
330
230
100
AcDbEntity
  8
0
  6
Continuous
 62
     7
370
    25
100
AcDbCircle
 10
89.7890019024
 20
-79.0240368967
 30
0.0
 40
2.457354351322057
100
AcDbArc
 50
242.6889622863
 51
255.2159751841
  0
ARC
  5
27F
330
230
100
AcDbEntity
  8
0
  6
Continuous
 62
     7
370
    25
100
AcDbCircle
 10
-75.3809263483
 20
84.5182134233
 30
0.0
 40
65.37109789901211
100
AcDbArc
 50
206.0238567416
 51
217.4827768649
  0
ARC
  5
280
330
230
100
AcDbEntity
  8
0
  6
Continuous
 62
     7
370
    25
100
AcDbCircle
 10
-122.8837786227
 20
43.7524544741
 30
0.0
 40
2.563010100996197
100
AcDbArc
 50
230.0626573887
 51
242.3419750249
  0
ARC
  5
281
330
230
100
AcDbEntity
  8
0
  6
Continuous
 62
     7
370
    25
100
AcDbCircle
 10
-92.6870551491
 20
75.2285410861
 30
0.0
 40
45.75003932773225
100
AcDbArc
 50
171.4968117976
 51
205.0785002466
  0
VIEWPORT
  5
368
330
230
100
AcDbEntity
  8
0
100
AcDbViewport
 10
0.0
 20
0.0
 30
0.0
 40
205.6
 41
156.0
 68
     1
 69
     1
 12
-13.0911322451
 22
0.9264697138
 13
0.0
 23
0.0
 14
10.0
 24
10.0
 15
10.0
 25
10.0
 16
0.0
 26
0.0
 36
1.0
 17
0.0
 27
0.0
 37
0.0
 42
50.0
 43
0.0
 44
0.0
 45
27.8940017838
 50
0.0
 51
0.0
 72
   100
 90
   557152
  1

281
     0
 71
     1
 74
     0
110
0.0
120
0.0
130
0.0
111
1.0
121
0.0
131
0.0
112
0.0
122
1.0
132
0.0
 79
     0
146
0.0
  0
ENDBLK
  5
233
330
230
100
AcDbEntity
  8
0
100
AcDbBlockEnd
  0
BLOCK
  5
284
330
282
100
AcDbEntity
  8
0
100
AcDbBlockBegin
  2
*Paper_Space5
 70
     0
 10
0.0
 20
0.0
 30
0.0
  3
*Paper_Space5
  1

  0
SPLINE
  5
28A
330
282
100
AcDbEntity
  8
0
  6
Continuous
 62
     7
370
    25
100
AcDbSpline
210
0.0
220
0.0
230
1.0
 70
     8
 71
     3
 72
    18
 73
    14
 74
     0
 42
0.000000001
 43
0.00000001
 40
0.0
 40
0.0
 40
0.0
 40
0.0
 40
0.1250000000000007
 40
0.1250000000000007
 40
0.2500000000000014
 40
0.2500000000000014
 40
0.5000000000000006
 40
0.5000000000000006
 40
0.6250000000000003
 40
0.6250000000000003
 40
0.7500000000000002
 40
0.7500000000000002
 40
1.0
 40
1.0
 40
1.0
 40
1.0
 10
168.0000729825909
 20
-33.34715939854402
 30
0.0
 10
167.7605787204844
 20
-33.50857636963941
 30
0.0
 10
167.5170871139462
 20
-33.68579618963897
 30
0.0
 10
167.0208991948337
 20
-34.07036761217437
 30
0.0
 10
166.7676836996043
 20
-34.27827676506219
 30
0.0
 10
166.007128294138
 20
-34.93284266084388
 30
0.0
 10
165.4941627447682
 20
-35.41342492375507
 30
0.0
 10
164.7096099955981
 20
-36.19250754049933
 30
0.0
 10
164.4439690514641
 20
-36.46369835657109
 30
0.0
 10
163.9155325940151
 20
-37.01592516875086
 30
0.0
 10
163.6531605232176
 20
-37.29641072108498
 30
0.0
 10
162.8702097207421
 20
-38.14933595138633
 30
0.0
 10
162.3536780517292
 20
-38.73307428567204
 30
0.0
 10
161.8406599076838
 20
-39.32997089526592
 30
0.0
  0
SPLINE
  5
28C
330
282
100
AcDbEntity
  8
0
  6
Continuous
 62
     7
370
    25
100
AcDbSpline
210
0.0
220
0.0
230
1.0
 70
     8
 71
     3
 72
    13
 73
     9
 74
     0
 42
0.000000001
 43
0.00000001
 40
0.0
 40
0.0
 40
0.0
 40
0.0
 40
0.1401772877655781
 40
0.2802005889028508
 40
0.4890459639899206
 40
0.6986313780482433
 40
0.882040860853481
 40
1.0
 40
1.0
 40
1.0
 40
1.0
 10
156.3049608681287
 20
-47.03343477259283
 30
0.0
 10
156.7247938205404
 20
-46.71104193262192
 30
0.0
 10
157.5639985332421
 20
-46.0666104055333
 30
0.0
 10
159.0840568191255
 20
-45.01034339019841
 30
0.0
 10
160.8196241808872
 20
-43.96509087213142
 30
0.0
 10
162.4845626558905
 20
-43.31468091039304
 30
0.0
 10
163.6170058594251
 20
-43.2443359579987
 30
0.0
 10
163.931179344646
 20
-43.5936443004437
 30
0.0
 10
164.05415045431
 20
-43.73036759666697
 30
0.0
  0
SPLINE
  5
296
330
282
100
AcDbEntity
  8
0
  6
Continuous
 62
     7
370
    25
100
AcDbSpline
210
0.0
220
0.0
230
1.0
 70
     8
 71
     3
 72
    18
 73
    14
 74
     0
 42
0.000000001
 43
0.00000001
 40
0.0
 40
0.0
 40
0.0
 40
0.0
 40
0.2500000000000033
 40
0.2500000000000033
 40
0.3750000000000033
 40
0.3750000000000033
 40
0.5000000000000032
 40
0.5000000000000032
 40
0.7500000000000007
 40
0.7500000000000007
 40
0.8750000000000003
 40
0.8750000000000003
 40
1.0
 40
1.0
 40
1.0
 40
1.0
 10
161.635912884164
 20
-39.1620319924573
 30
0.0
 10
162.1503435853546
 20
-38.55555343716357
 30
0.0
 10
162.6685566156052
 20
-37.96291330206933
 30
0.0
 10
163.454420557995
 20
-37.09758200933505
 30
0.0
 10
163.7178291270619
 20
-36.81311956037419
 30
0.0
 10
164.2484687101768
 20
-36.25324895752137
 30
0.0
 10
164.5153440961124
 20
-35.97832932304781
 30
0.0
 10
165.3036103882951
 20
-35.1888535879898
 30
0.0
 10
165.8191536951519
 20
-34.70223880824229
 30
0.0
 10
166.5837191513444
 20
-34.03959868879245
 30
0.0
 10
166.8383169513141
 20
-33.82913172352703
 30
0.0
 10
167.3375913867678
 20
-33.43953866602376
 30
0.0
 10
167.5826640755119
 20
-33.25995097749281
 30
0.0
 10
167.823776357991
 20
-33.09626379531016
 30
0.0
  0
SPLINE
  5
297
330
282
100
AcDbEntity
  8
0
  6
Continuous
 62
     7
370
    25
100
AcDbSpline
210
0.0
220
0.0
230
1.0
 70
     8
 71
     3
 72
    10
 73
     6
 74
     0
 42
0.000000001
 43
0.00000001
 40
0.0
 40
0.0
 40
0.0
 40
0.0
 40
0.5
 40
0.5
 40
1.0
 40
1.0
 40
1.0
 40
1.0
 10
167.823776357991
 20
-33.09626379531016
 30
0.0
 10
167.8763423251905
 20
-33.11055009884254
 30
0.0
 10
167.9277007665798
 20
-33.14757990730531
 30
0.0
 10
167.994793700112
 20
-33.24237572259216
 30
0.0
 10
168.0098675476468
 20
-33.29974649868728
 30
0.0
 10
168.0000729825909
 20
-33.34715939854402
 30
0.0
  0
SPLINE
  5
298
330
282
100
AcDbEntity
  8
0
  6
Continuous
 62
     7
370
    25
100
AcDbSpline
210
0.0
220
0.0
230
1.0
 70
     8
 71
     3
 72
    18
 73
    14
 74
     0
 42
0.000000001
 43
0.00000001
 40
0.0
 40
0.0
 40
0.0
 40
0.0
 40
0.1250000000000019
 40
0.1250000000000019
 40
0.2500000000000038
 40
0.2500000000000038
 40
0.5000000000000056
 40
0.5000000000000056
 40
0.625000000000005
 40
0.625000000000005
 40
0.7500000000000044
 40
0.7500000000000044
 40
1.0
 40
1.0
 40
1.0
 40
1.0
 10
-167.823776357991
 20
58.12554897581249
 30
0.0
 10
-167.9500541040842
 20
57.9306522272466
 30
0.0
 10
-168.0697778736429
 20
57.71699738838349
 30
0.0
 10
-168.2947285418868
 20
57.25284900899991
 30
0.0
 10
-168.3999968403232
 20
57.00179748496191
 30
0.0
 10
-168.6862506415955
 20
56.20916250668378
 30
0.0
 10
-168.8402175672731
 20
55.62427901417644
 30
0.0
 10
-169.0102333846173
 20
54.66677604756254
 30
0.0
 10
-169.0568783960559
 20
54.33200251626677
 30
0.0
 10
-169.1270770393665
 20
53.64699393203109
 30
0.0
 10
-169.150754722858
 20
53.29737776518231
 30
0.0
 10
-169.1881323432441
 20
52.22862392824931
 30
0.0
 10
-169.1683716613177
 20
51.48977406556765
 30
0.0
 10
-169.103039107045
 20
50.7257282802628
 30
0.0
  0
SPLINE
  5
29A
330
282
100
AcDbEntity
  8
0
  6
Continuous
 62
     7
370
    25
100
AcDbSpline
210
0.0
220
0.0
230
1.0
 70
     8
 71
     3
 72
    10
 73
     6
 74
     0
 42
0.000000001
 43
0.00000001
 40
0.0
 40
0.0
 40
0.0
 40
0.0
 40
0.2797093533541595
 40
0.6231517552220223
 40
1.0
 40
1.0
 40
1.0
 40
1.0
 10
164.1480551669874
 20
-44.61192412702447
 30
0.0
 10
164.1295548373937
 20
-44.36521602897793
 30
0.0
 10
164.0883387939535
 20
-43.81558627051028
 30
0.0
 10
163.5090176276099
 20
-43.32791563038408
 30
0.0
 10
162.745291274052
 20
-43.40755882588653
 30
0.0
 10
162.3457179390805
 20
-43.44922728093778
 30
0.0
  0
SPLINE
  5
29B
330
282
100
AcDbEntity
  8
0
  6
Continuous
 62
     7
370
    25
100
AcDbSpline
210
0.0
220
0.0
230
1.0
 70
     8
 71
     3
 72
    12
 73
     8
 74
     0
 42
0.000000001
 43
0.00000001
 40
0.0
 40
0.0
 40
0.0
 40
0.0
 40
0.4999999999999347
 40
0.4999999999999347
 40
0.7499999999999674
 40
0.7499999999999674
 40
1.0
 40
1.0
 40
1.0
 40
1.0
 10
164.360223360454
 20
-44.43656682131497
 30
0.0
 10
164.3392348630156
 20
-44.48108739096102
 30
0.0
 10
164.3137757321795
 20
-44.52197203003698
 30
0.0
 10
164.2638719119356
 20
-44.57377117150275
 30
0.0
 10
164.2452223798327
 20
-44.58943416385107
 30
0.0
 10
164.2019443853567
 20
-44.6119252742697
 30
0.0
 10
164.1765629368096
 20
-44.61967192801543
 30
0.0
 10
164.1480551669863
 20
-44.61192412702144
 30
0.0
  0
SPLINE
  5
29C
330
282
100
AcDbEntity
  8
0
  6
Continuous
 62
     7
370
    25
100
AcDbSpline
210
0.0
220
0.0
230
1.0
 70
     8
 71
     3
 72
    16
 73
    12
 74
     0
 42
0.000000001
 43
0.00000001
 40
0.0
 40
0.0
 40
0.0
 40
0.0
 40
0.2499999999999999
 40
0.2499999999999999
 40
0.4999999999999998
 40
0.4999999999999998
 40
0.7499999999999997
 40
0.7499999999999997
 40
0.8749999999999998
 40
0.8749999999999998
 40
1.0
 40
1.0
 40
1.0
 40
1.0
 10
124.3314375389206
 20
-56.86257016976067
 30
0.0
 10
123.9915639258999
 20
-56.89100718745794
 30
0.0
 10
123.6587436619287
 20
-56.92053990784157
 30
0.0
 10
123.0067140186896
 20
-56.98168219977494
 30
0.0
 10
122.6874320401311
 20
-57.01325436994905
 30
0.0
 10
122.0655986093739
 20
-57.08013746932595
 30
0.0
 10
121.7614476564603
 20
-57.11535347271273
 30
0.0
 10
121.3385406010772
 20
-57.17469338600259
 30
0.0
 10
121.2027628181436
 20
-57.19557788989798
 30
0.0
 10
120.9510986511324
 20
-57.24270316239934
 30
0.0
 10
120.8320362402629
 20
-57.26864501164327
 30
0.0
 10
120.7525089170623
 20
-57.30137927113269
 30
0.0
  0
SPLINE
  5
29F
330
282
100
AcDbEntity
  8
0
  6
Continuous
 62
     7
370
    25
100
AcDbSpline
210
0.0
220
0.0
230
1.0
 70
     8
 71
     3
 72
    16
 73
    12
 74
     0
 42
0.000000001
 43
0.00000001
 40
0.0
 40
0.0
 40
0.0
 40
0.0
 40
0.125
 40
0.125
 40
0.25
 40
0.25
 40
0.5
 40
0.5
 40
0.75
 40
0.75
 40
1.0
 40
1.0
 40
1.0
 40
1.0
 10
121.5975759315535
 20
-57.84995131423441
 30
0.0
 10
121.7658946583258
 20
-57.87485565716661
 30
0.0
 10
121.94909889144
 20
-57.89055122823927
 30
0.0
 10
122.3107019229138
 20
-57.9147923520835
 30
0.0
 10
122.4911801662267
 20
-57.92292498228214
 30
0.0
 10
123.0321478138818
 20
-57.94022365410098
 30
0.0
 10
123.3935674005447
 20
-57.94218336682052
 30
0.0
 10
124.1048571667509
 20
-57.93337050786746
 30
0.0
 10
124.455932035818
 20
-57.92243657182562
 30
0.0
 10
125.1507584088823
 20
-57.8890756145269
 30
0.0
 10
125.4944695562322
 20
-57.86661266972772
 30
0.0
 10
125.8343431692529
 20
-57.83817565203044
 30
0.0
  0
SPLINE
  5
2A3
330
282
100
AcDbEntity
  8
0
  6
Continuous
 62
     7
370
    25
100
AcDbSpline
210
0.0
220
0.0
230
1.0
 70
     8
 71
     3
 72
    16
 73
    12
 74
     0
 42
0.000000001
 43
0.00000001
 40
0.0
 40
0.0
 40
0.0
 40
0.0
 40
0.125000000000006
 40
0.125000000000006
 40
0.2500000000000119
 40
0.2500000000000119
 40
0.500000000000008
 40
0.500000000000008
 40
0.750000000000004
 40
0.750000000000004
 40
1.0
 40
1.0
 40
1.0
 40
1.0
 10
120.6843729646842
 20
-57.27557832852909
 30
0.0
 10
120.7546881284794
 20
-57.23530931529659
 30
0.0
 10
120.8661946035764
 20
-57.20004516515987
 30
0.0
 10
121.1081481450687
 20
-57.13469392057593
 30
0.0
 10
121.2408653001228
 20
-57.10470104380652
 30
0.0
 10
121.6579280054211
 20
-57.01805506646322
 30
0.0
 10
121.9630223975533
 20
-56.96449941997597
 30
0.0
 10
122.5896385199023
 20
-56.86161875262524
 30
0.0
 10
122.9129275736343
 20
-56.81229854207236
 30
0.0
 10
123.5755255240651
 20
-56.71589462651733
 30
0.0
 10
123.914921358623
 20
-56.66885380727341
 30
0.0
 10
124.2627409917306
 20
-56.62304085195267
 30
0.0
  0
SPLINE
  5
2A5
330
282
100
AcDbEntity
  8
0
  6
Continuous
 62
     7
370
    25
100
AcDbSpline
210
0.0
220
0.0
230
1.0
 70
     8
 71
     3
 72
    16
 73
    12
 74
     0
 42
0.000000001
 43
0.00000001
 40
0.0
 40
0.0
 40
0.0
 40
0.0
 40
0.1250000000000064
 40
0.1250000000000064
 40
0.2500000000000128
 40
0.2500000000000128
 40
0.5000000000000085
 40
0.5000000000000085
 40
0.7500000000000043
 40
0.7500000000000043
 40
1.0
 40
1.0
 40
1.0
 40
1.0
 10
-144.9041386286664
 20
14.9056882491258
 30
0.0
 10
-145.0469271785046
 20
15.00387428546359
 30
0.0
 10
-145.2013331900144
 20
15.11140775164468
 30
0.0
 10
-145.5052118190467
 20
15.32510448440857
 30
0.0
 10
-145.6559321618736
 20
15.43212959977109
 30
0.0
 10
-146.1055383359495
 20
15.75431760806054
 30
0.0
 10
-146.4033658996522
 20
15.97173452308895
 30
0.0
 10
-146.9822901512954
 20
16.4022552324852
 30
0.0
 10
-147.2645193631281
 20
16.61614233293161
 30
0.0
 10
-147.8166238772964
 20
17.04267635043928
 30
0.0
 10
-148.0864517720339
 20
17.25529112522022
 30
0.0
 10
-148.3498166436994
 20
17.46721093283847
 30
0.0
  0
SPLINE
  5
2AC
330
282
100
AcDbEntity
  8
0
  6
Continuous
 62
     7
370
    25
100
AcDbSpline
210
0.0
220
0.0
230
1.0
 70
     8
 71
     3
 72
     9
 73
     5
 74
     0
 42
0.000000001
 43
0.00000001
 40
0.0
 40
0.0
 40
0.0
 40
0.0
 40
0.5120408586510647
 40
1.0
 40
1.0
 40
1.0
 40
1.0
 10
121.7210700252975
 20
-57.86506431374918
 30
0.0
 10
121.6938681105557
 20
-57.86304812336781
 30
0.0
 10
121.6407436102698
 20
-57.85911056575438
 30
0.0
 10
121.5918817866741
 20
-57.85245470560471
 30
0.0
 10
121.5680392131875
 20
-57.84920691780112
 30
0.0
  0
SPLINE
  5
2B2
330
282
100
AcDbEntity
  8
0
  6
Continuous
 62
     7
370
    25
100
AcDbSpline
210
0.0
220
0.0
230
1.0
 70
     8
 71
     3
 72
    10
 73
     6
 74
     0
 42
0.000000001
 43
0.00000001
 40
0.0
 40
0.0
 40
0.0
 40
0.0
 40
0.0094808515025614
 40
0.8170508537952876
 40
1.0
 40
1.0
 40
1.0
 40
1.0
 10
-144.2613425151697
 20
14.4692280414014
 30
0.0
 10
-144.2605684382764
 20
14.46871474756717
 30
0.0
 10
-144.1938592206101
 20
14.42447956833374
 30
0.0
 10
-144.1418679286326
 20
14.39197604225883
 30
0.0
 10
-144.0969117504348
 20
14.36317935764863
 30
0.0
 10
-144.0886083325449
 20
14.35786060245752
 30
0.0
  0
SPLINE
  5
2B4
330
282
100
AcDbEntity
  8
0
  6
Continuous
 62
     7
370
    25
100
AcDbSpline
210
0.0
220
0.0
230
1.0
 70
     8
 71
     3
 72
     9
 73
     5
 74
     0
 42
0.000000001
 43
0.00000001
 40
0.0
 40
0.0
 40
0.0
 40
0.0
 40
0.332653857683547
 40
1.0
 40
1.0
 40
1.0
 40
1.0
 10
-145.2691206877782
 20
15.12342341486026
 30
0.0
 10
-145.6349916011855
 20
15.36253912774421
 30
0.0
 10
-146.7348463148963
 20
16.08135151293358
 30
0.0
 10
-147.730977121038
 20
16.78755259765936
 30
0.0
 10
-148.3957411717592
 20
17.25883316725082
 30
0.0
  0
LWPOLYLINE
  5
2B6
330
282
100
AcDbEntity
  8
0
  6
Continuous
 62
     7
370
    25
100
AcDbPolyline
 90
        9
 70
   128
 43
0.0
 10
-158.6295566556
 20
26.6072669834
 10
-158.6556492875
 20
26.5788977564
 10
-158.678052877
 20
26.5498749302
 10
-158.6959064667
 20
26.5213138358
 10
-158.7085239531
 20
26.49431206
 10
-158.7154204533
 20
26.469907266
 10
-158.7163309386
 20
26.4490373162
 10
-158.7112204198
 20
26.4325042312
 10
-158.700285291
 20
26.4209433681
  0
LWPOLYLINE
  5
2B7
330
282
100
AcDbEntity
  8
0
  6
Continuous
 62
     7
370
    25
100
AcDbPolyline
 90
        9
 70
   128
 43
0.0
 10
-148.3957411718
 20
17.2588331673
 10
-148.4071529045
 20
17.2708177947
 10
-148.4136749197
 20
17.2886058876
 10
-148.4150565799
 20
17.3115138596
 10
-148.4112447887
 20
17.3386613702
 10
-148.4023860311
 20
17.3690051558
 10
-148.3888207442
 20
17.4013791217
 10
-148.3710702343
 20
17.4345391545
 10
-148.3498166437
 20
17.4672109328
  0
LWPOLYLINE
  5
2B9
330
282
100
AcDbEntity
  8
0
  6
Continuous
 62
     7
370
    25
100
AcDbPolyline
 90
        9
 70
   128
 43
0.0
 10
-169.103039107
 20
50.7257282803
 10
-169.1380891375
 20
50.7179862583
 10
-169.1691058978
 20
50.7087979453
 10
-169.1948974311
 20
50.698516443
 10
-169.2144725833
 20
50.6875368636
 10
-169.2270790922
 20
50.6762811464
 10
-169.2322324969
 20
50.6651818421
 10
-169.2297347548
 20
50.6546654909
 10
-169.2196818528
 20
50.6451362302
  0
SPLINE
  5
2BD
330
282
100
AcDbEntity
  8
0
  6
Continuous
 62
     7
370
    25
100
AcDbSpline
210
0.0
220
0.0
230
1.0
 70
     8
 71
     3
 72
    18
 73
    14
 74
     0
 42
0.000000001
 43
0.00000001
 40
0.0
 40
0.0
 40
0.0
 40
0.0
 40
0.2500000000000006
 40
0.2500000000000006
 40
0.3750000000000009
 40
0.3750000000000009
 40
0.5000000000000012
 40
0.5000000000000012
 40
0.7500000000000017
 40
0.7500000000000017
 40
0.8750000000000008
 40
0.8750000000000008
 40
1.0
 40
1.0
 40
1.0
 40
1.0
 10
-169.2196818527531
 20
50.64513623018059
 30
0.0
 10
-169.2895990430569
 20
51.40046217285732
 30
0.0
 10
-169.3142592583732
 20
52.13128486496436
 30
0.0
 10
-169.2845123595251
 20
53.18891477706422
 30
0.0
 10
-169.2634258764108
 20
53.5349765820059
 30
0.0
 10
-169.1984783120943
 20
54.21316974397344
 30
0.0
 10
-169.1545008767324
 20
54.544603952055
 30
0.0
 10
-168.9923525040607
 20
55.49284274181895
 30
0.0
 10
-168.8435146017743
 20
56.07238709689571
 30
0.0
 10
-168.5646074819028
 20
56.8578546762277
 30
0.0
 10
-168.4617433385691
 20
57.10662610492099
 30
0.0
 10
-168.2415461977587
 20
57.5662059072319
 30
0.0
 10
-168.124124409094
 20
57.77768880238004
 30
0.0
 10
-168.0000729825909
 20
57.97048066255169
 30
0.0
  0
SPLINE
  5
2BE
330
282
100
AcDbEntity
  8
0
  6
Continuous
 62
     7
370
    25
100
AcDbSpline
210
0.0
220
0.0
230
1.0
 70
     8
 71
     3
 72
    10
 73
     6
 74
     0
 42
0.000000001
 43
0.00000001
 40
0.0
 40
0.0
 40
0.0
 40
0.0
 40
0.5
 40
0.5
 40
1.0
 40
1.0
 40
1.0
 40
1.0
 10
-168.0000729825909
 20
57.97048066255169
 30
0.0
 10
-168.0098634239958
 20
58.02319526528394
 30
0.0
 10
-167.9949128907642
 20
58.07221522623708
 30
0.0
 10
-167.9278056637376
 20
58.13070617649372
 30
0.0
 10
-167.8763214816771
 20
58.13982961452832
 30
0.0
 10
-167.8237763579914
 20
58.12554897581645
 30
0.0
  0
SPLINE
  5
2BF
330
282
100
AcDbEntity
  8
0
  6
Continuous
 62
     8
370
    25
100
AcDbSpline
210
0.0
220
0.0
230
1.0
 70
     8
 71
     3
 72
     9
 73
     5
 74
     0
 42
0.000000001
 43
0.00000001
 40
0.0
 40
0.0
 40
0.0
 40
0.0
 40
0.3082809971237226
 40
1.0
 40
1.0
 40
1.0
 40
1.0
 10
164.05415045431
 20
-43.73036759666697
 30
0.0
 10
164.1187321694084
 20
-43.77346709904491
 30
0.0
 10
164.3282219391348
 20
-43.91327299944119
 30
0.0
 10
164.3471384502457
 20
-44.22259967898184
 30
0.0
 10
164.3602233604493
 20
-44.43656682131674
 30
0.0
  0
SPLINE
  5
2C3
330
282
100
AcDbEntity
  8
0
  6
Continuous
 62
     8
370
    25
100
AcDbSpline
210
0.0
220
0.0
230
1.0
 70
     8
 71
     3
 72
    10
 73
     6
 74
     0
 42
0.000000001
 43
0.00000001
 40
0.0
 40
0.0
 40
0.0
 40
0.0
 40
0.1829491462045937
 40
0.9905191484973634
 40
1.0
 40
1.0
 40
1.0
 40
1.0
 10
-144.9336753470326
 20
14.90643264555867
 30
0.0
 10
-144.953529501786
 20
14.91924951771788
 30
0.0
 10
-145.0610234194589
 20
14.98864233840552
 30
0.0
 10
-145.1759527229149
 20
15.06200183560916
 30
0.0
 10
-145.2680519911583
 20
15.1227188697494
 30
0.0
 10
-145.2691206877782
 20
15.12342341486026
 30
0.0
  0
LINE
  5
2C4
330
282
100
AcDbEntity
  8
0
  6
Continuous
 62
     7
370
    25
100
AcDbLine
 10
-143.9416508909
 20
14.2926915094
 30
0.0
 11
121.3046624625
 21
-57.7955729191
 31
0.0
  0
LINE
  5
2C5
330
282
100
AcDbEntity
  8
0
  6
Continuous
 62
     7
370
    25
100
AcDbLine
 10
-145.2691355676
 20
15.1234008271
 30
0.0
 11
-144.261357395
 21
14.4692054536
 31
0.0
  0
LINE
  5
2C6
330
282
100
AcDbEntity
  8
0
  6
Continuous
 62
     7
370
    25
100
AcDbLine
 10
139.967109223
 20
-55.3176027279
 30
0.0
 11
138.4642035926
 21
-54.3419972457
 31
0.0
  0
LINE
  5
2C7
330
282
100
AcDbEntity
  8
0
  6
Continuous
 62
     7
370
    25
100
AcDbLine
 10
-169.103039107
 20
50.7257282803
 30
0.0
 11
161.6359128842
 21
-39.1620319925
 31
0.0
  0
LINE
  5
2C8
330
282
100
AcDbEntity
  8
0
  6
Continuous
 62
     7
370
    25
100
AcDbLine
 10
-148.3498166437
 20
17.4672109328
 30
0.0
 11
124.2627409917
 21
-56.623040852
 31
0.0
  0
LINE
  5
2C9
330
282
100
AcDbEntity
  8
0
  6
Continuous
 62
     7
370
    25
100
AcDbLine
 10
-167.823776358
 20
58.1255489758
 30
0.0
 11
167.823776358
 21
-33.0962637953
 31
0.0
  0
LINE
  5
2CA
330
282
100
AcDbEntity
  8
0
  6
Continuous
 62
     7
370
    25
100
AcDbLine
 10
120.7525089171
 20
-57.3013792711
 30
0.0
 11
121.5975759316
 21
-57.8499513142
 31
0.0
  0
LINE
  5
2CB
330
282
100
AcDbEntity
  8
0
  6
Continuous
 62
     7
370
    25
100
AcDbLine
 10
161.3188003438
 20
-43.8429932897
 30
0.0
 11
164.148055167
 21
-44.611924127
 31
0.0
  0
LINE
  5
2CC
330
282
100
AcDbEntity
  8
0
  6
Continuous
 62
     7
370
    25
100
AcDbLine
 10
120.4936525993
 20
-57.3382946453
 30
0.0
 11
-144.4599866341
 21
14.6704272286
 31
0.0
  0
LINE
  5
2CD
330
282
100
AcDbEntity
  8
0
  6
Continuous
 62
     7
370
    25
100
AcDbLine
 10
121.0878245927
 20
-57.7239991383
 30
0.0
 11
120.4936525993
 21
-57.3382946453
 31
0.0
  0
LINE
  5
2CE
330
282
100
AcDbEntity
  8
0
  6
Continuous
 62
     7
370
    25
100
AcDbLine
 10
-143.8658146407
 20
14.2847227356
 30
0.0
 11
121.0878245927
 21
-57.7239991383
 31
0.0
  0
LINE
  5
2CF
330
282
100
AcDbEntity
  8
0
  6
Continuous
 62
     7
370
    25
100
AcDbLine
 10
-144.4599866341
 20
14.6704272286
 30
0.0
 11
-143.8658146407
 21
14.2847227356
 31
0.0
  0
LINE
  5
2D0
330
282
100
AcDbEntity
  8
0
  6
Continuous
 62
     7
370
    25
100
AcDbLine
 10
-144.0886083325
 20
14.3578606025
 30
0.0
 11
-144.933675347
 21
14.9064326456
 31
0.0
  0
LINE
  5
2D1
330
282
100
AcDbEntity
  8
0
  6
Continuous
 62
     8
370
    25
100
AcDbLine
 10
-159.2238032901
 20
27.26757579
 30
0.0
 11
-158.6295566556
 21
26.6072669834
 31
0.0
  0
LINE
  5
2D2
330
282
100
AcDbEntity
  8
0
  6
Continuous
 62
     8
370
    25
100
AcDbLine
 10
-158.6295566556
 20
26.6072669834
 30
0.0
 11
-157.551506974
 21
25.4631446123
 31
0.0
  0
LINE
  5
2D3
330
282
100
AcDbEntity
  8
0
  6
Continuous
 62
     8
370
    25
100
AcDbLine
 10
-149.7074326098
 20
18.4758035633
 30
0.0
 11
-148.3498166437
 21
17.4672109328
 31
0.0
  0
ARC
  5
2D4
330
282
100
AcDbEntity
  8
0
  6
Continuous
 62
     7
370
    25
100
AcDbCircle
 10
125.5103045059
 20
-8.4637085635
 30
0.0
 40
47.67201352948154
100
AcDbArc
 50
285.76721648
 51
319.6487782915
  0
ARC
  5
2D5
330
282
100
AcDbEntity
  8
0
  6
Continuous
 62
     7
370
    25
100
AcDbCircle
 10
119.4940519362
 20
-23.5681976278
 30
0.0
 40
49.48193782650608
100
AcDbArc
 50
335.0556931645
 51
348.6017794469
  0
ARC
  5
2D6
330
282
100
AcDbEntity
  8
0
  6
Continuous
 62
     7
370
    25
100
AcDbCircle
 10
127.4711419783
 20
-10.4206766205
 30
0.0
 40
46.60346737400317
100
AcDbArc
 50
285.5532503275
 51
308.2216605124
  0
ARC
  5
2D7
330
282
100
AcDbEntity
  8
0
  6
Continuous
 62
     7
370
    25
100
AcDbCircle
 10
-128.1748299815
 20
54.1529939295
 30
0.0
 40
41.07145544111506
100
AcDbArc
 50
184.7866935025
 51
220.8894068944
  0
ARC
  5
2D8
330
282
100
AcDbEntity
  8
0
  6
Continuous
 62
     7
370
    25
100
AcDbCircle
 10
125.4641289305
 20
-8.4304919297
 30
0.0
 40
47.46393903817643
100
AcDbArc
 50
285.76721648
 51
319.6487782915
  0
ARC
  5
2D9
330
282
100
AcDbEntity
  8
0
  6
Continuous
 62
     7
370
    25
100
AcDbCircle
 10
117.717229207
 20
20.8602681775
 30
0.0
 40
77.75928820840304
100
AcDbArc
 50
274.8286773022
 51
285.3960289568
  0
ARC
  5
2DA
330
282
100
AcDbEntity
  8
0
  6
Continuous
 62
     7
370
    25
100
AcDbCircle
 10
-107.9167612468
 20
73.2871187686
 30
0.0
 40
68.92561561205274
100
AcDbArc
 50
223.9355736178
 51
232.6764338354
  0
ARC
  5
2DB
330
282
100
AcDbEntity
  8
0
  6
Continuous
 62
     7
370
    25
100
AcDbCircle
 10
163.116704263
 20
-37.5654679241
 30
0.0
 40
2.177558249990394
100
AcDbArc
 50
227.15449916
 51
234.1264883045
  0
ARC
  5
2DC
330
282
100
AcDbEntity
  8
0
  6
Continuous
 62
     7
370
    25
100
AcDbCircle
 10
138.7756508847
 20
-54.0656439786
 30
0.0
 40
0.4163778859589323
100
AcDbArc
 50
185.9125461186
 51
221.5832705501
  0
ARC
  5
2DD
330
282
100
AcDbEntity
  8
0
  6
Continuous
 62
     7
370
    25
100
AcDbCircle
 10
117.7701320108
 20
20.8076992605
 30
0.0
 40
77.94691452270877
100
AcDbArc
 50
274.8286773022
 51
285.3960289568
  0
ARC
  5
2DE
330
282
100
AcDbEntity
  8
0
  6
Continuous
 62
     7
370
    25
100
AcDbCircle
 10
119.2730376411
 20
19.8320937783
 30
0.0
 40
77.94691452270982
100
AcDbArc
 50
274.8286773022
 51
285.3960289568
  0
ARC
  5
2DF
330
282
100
AcDbEntity
  8
0
  6
Continuous
 62
     7
370
    25
100
AcDbCircle
 10
124.596225511
 20
-56.6570138115
 30
0.0
 40
0.3352105107905782
100
AcDbArc
 50
174.1831927242
 51
217.822386189
  0
ARC
  5
2E0
330
282
100
AcDbEntity
  8
0
  6
Continuous
 62
     7
370
    25
100
AcDbCircle
 10
120.782237533
 20
-57.120002724
 30
0.0
 40
0.1837967422167427
100
AcDbArc
 50
237.8281246462
 51
260.6916731075
  0
ARC
  5
2E1
330
282
100
AcDbEntity
  8
0
  6
Continuous
 62
     7
370
    25
100
AcDbCircle
 10
120.4584128793
 20
-56.909782087
 30
0.0
 40
0.4299591265346527
100
AcDbArc
 50
274.7012716271
 51
301.7045036039
  0
ARC
  5
2E2
330
282
100
AcDbEntity
  8
0
  6
Continuous
 62
     7
370
    25
100
AcDbCircle
 10
-143.6647270757
 20
16.7086972699
 30
0.0
 40
2.187917394806914
100
AcDbArc
 50
235.4948682031
 51
248.6860616815
  0
ARC
  5
2E3
330
282
100
AcDbEntity
  8
0
  6
Continuous
 62
     7
370
    25
100
AcDbCircle
 10
120.5325058291
 20
-56.6847115361
 30
0.0
 40
0.6547369350555945
100
AcDbArc
 50
266.5979700052
 51
289.6344253131
  0
ARC
  5
2E4
330
282
100
AcDbEntity
  8
0
  6
Continuous
 62
     7
370
    25
100
AcDbCircle
 10
121.905099027
 20
-55.5108452488
 30
0.0
 40
2.359234545273734
100
AcDbArc
 50
249.7317982623
 51
262.5102586692
  0
ARC
  5
2E5
330
282
100
AcDbEntity
  8
0
  6
Continuous
 62
     7
370
    25
100
AcDbCircle
 10
121.5834848168
 20
-57.8227069036
 30
0.0
 40
0.0306727473045056
100
AcDbArc
 50
239.7641157578
 51
297.3485122071
  0
ARC
  5
2E6
330
282
100
AcDbEntity
  8
0
  6
Continuous
 62
     7
370
    25
100
AcDbCircle
 10
-143.8797562111
 20
14.5170534401
 30
0.0
 40
0.2327486276140019
100
AcDbArc
 50
244.9202518464
 51
273.4340550044
  0
ARC
  5
2E7
330
282
100
AcDbEntity
  8
0
  6
Continuous
 62
     7
370
    25
100
AcDbCircle
 10
121.8556871798
 20
-55.7624811962
 30
0.0
 40
2.106458067413263
100
AcDbArc
 50
248.6214725857
 51
262.1514363065
  0
ARC
  5
2E8
330
282
100
AcDbEntity
  8
0
  6
Continuous
 62
     7
370
    25
100
AcDbCircle
 10
-107.8621355617
 20
73.2223898693
 30
0.0
 40
69.10059958129675
100
AcDbArc
 50
222.6325750212
 51
234.0847220206
  0
ARC
  5
2E9
330
282
100
AcDbEntity
  8
0
  6
Continuous
 62
     7
370
    25
100
AcDbCircle
 10
-144.9181327729
 20
14.9367803271
 30
0.0
 40
0.0340962371155335
100
AcDbArc
 50
242.8807311379
 51
294.2318968287
  0
ARC
  5
2EA
330
282
100
AcDbEntity
  8
0
  6
Continuous
 62
     7
370
    25
100
AcDbCircle
 10
-128.180891976
 20
54.0701706031
 30
0.0
 40
41.18146591615402
100
AcDbArc
 50
184.770761639
 51
222.1751927783
  0
ARC
  5
2EB
330
282
100
AcDbEntity
  8
0
  6
Continuous
 62
     7
370
    25
100
AcDbCircle
 10
-143.6262054677
 20
16.937292588
 30
0.0
 40
2.415340471098413
100
AcDbArc
 50
237.226520509
 51
249.8058525673
  0
ARC
  5
2EC
330
282
100
AcDbEntity
  8
0
  6
Continuous
 62
     7
370
    25
100
AcDbCircle
 10
-143.8334141698
 20
14.7593292613
 30
0.0
 40
0.4757111988645445
100
AcDbArc
 50
237.5578580173
 51
266.0945873516
  0
VIEWPORT
  5
36A
330
282
100
AcDbEntity
  8
0
100
AcDbViewport
 10
0.0
 20
0.0
 30
0.0
 40
205.6
 41
156.0
 68
     1
 69
     1
 12
-13.0911322451
 22
0.9264697138
 13
0.0
 23
0.0
 14
10.0
 24
10.0
 15
10.0
 25
10.0
 16
0.0
 26
0.0
 36
1.0
 17
0.0
 27
0.0
 37
0.0
 42
50.0
 43
0.0
 44
0.0
 45
27.8940017838
 50
0.0
 51
0.0
 72
   100
 90
   557152
  1

281
     0
 71
     1
 74
     0
110
0.0
120
0.0
130
0.0
111
1.0
121
0.0
131
0.0
112
0.0
122
1.0
132
0.0
 79
     0
146
0.0
  0
ENDBLK
  5
285
330
282
100
AcDbEntity
  8
0
100
AcDbBlockEnd
  0
BLOCK
  5
2EF
330
2ED
100
AcDbEntity
  8
0
100
AcDbBlockBegin
  2
*Paper_Space6
 70
     0
 10
0.0
 20
0.0
 30
0.0
  3
*Paper_Space6
  1

  0
SPLINE
  5
2FB
330
2ED
100
AcDbEntity
  8
0
  6
Continuous
 62
     7
370
    25
100
AcDbSpline
210
0.0
220
0.0
230
1.0
 70
     8
 71
     3
 72
    18
 73
    14
 74
     0
 42
0.000000001
 43
0.00000001
 40
0.0
 40
0.0
 40
0.0
 40
0.0
 40
0.1250000000000007
 40
0.1250000000000007
 40
0.2500000000000014
 40
0.2500000000000014
 40
0.5000000000000006
 40
0.5000000000000006
 40
0.6250000000000003
 40
0.6250000000000003
 40
0.7500000000000002
 40
0.7500000000000002
 40
1.0
 40
1.0
 40
1.0
 40
1.0
 10
177.68708562932
 20
-8.844718937664155
 30
0.0
 10
177.4883307000093
 20
-8.958129445768115
 30
0.0
 10
177.2849529699408
 20
-9.090335657670556
 30
0.0
 10
176.8676455408144
 20
-9.390969371585607
 30
0.0
 10
176.6532579469747
 20
-9.559922536472587
 30
0.0
 10
176.0048160402599
 20
-10.10906953622233
 30
0.0
 10
175.5615737910725
 20
-10.53367271386279
 30
0.0
 10
174.8738323123362
 20
-11.25024186488127
 30
0.0
 10
174.6393314597987
 20
-11.50412536103889
 30
0.0
 10
174.1694601427446
 20
-12.02963221879242
 30
0.0
 10
173.9344914592343
 20
-12.30066767604831
 30
0.0
 10
173.228337553577
 20
-13.13645759848031
 30
0.0
 10
172.7558258594882
 20
-13.72363972909132
 30
0.0
 10
172.2797124404997
 20
-14.33863950391948
 30
0.0
  0
SPLINE
  5
2FD
330
2ED
100
AcDbEntity
  8
0
  6
Continuous
 62
     7
370
    25
100
AcDbSpline
210
0.0
220
0.0
230
1.0
 70
     8
 71
     3
 72
    30
 73
    26
 74
     0
 42
0.000000001
 43
0.00000001
 40
0.0
 40
0.0
 40
0.0
 40
0.0
 40
0.125
 40
0.125
 40
0.2500000000000001
 40
0.2500000000000001
 40
0.3750000000000001
 40
0.3750000000000001
 40
0.4375000000000001
 40
0.4375000000000001
 40
0.5000000000000001
 40
0.5000000000000001
 40
0.5625000000000001
 40
0.5625000000000001
 40
0.6250000000000001
 40
0.6250000000000001
 40
0.75
 40
0.75
 40
0.8125000000000001
 40
0.8125000000000001
 40
0.8750000000000001
 40
0.8750000000000001
 40
0.9375000000000001
 40
0.9375000000000001
 40
1.0
 40
1.0
 40
1.0
 40
1.0
 10
166.754023030571
 20
-23.1024149613976
 30
0.0
 10
167.1693661462697
 20
-22.73771220651066
 30
0.0
 10
167.5845645756672
 20
-22.39026856130997
 30
0.0
 10
168.4164897691293
 20
-21.73353502596622
 30
0.0
 10
168.8349748899076
 20
-21.42290603021546
 30
0.0
 10
169.6697487032887
 20
-20.85585672650459
 30
0.0
 10
170.0743599751827
 20
-20.60721346737556
 30
0.0
 10
170.6639658798014
 20
-20.2956009888853
 30
0.0
 10
170.8589314222467
 20
-20.20150050672017
 30
0.0
 10
171.2362929874285
 20
-20.03982285977468
 30
0.0
 10
171.4178677416911
 20
-19.97244129164394
 30
0.0
 10
171.7673295710827
 20
-19.86564966393656
 30
0.0
 10
171.9352197684839
 20
-19.82622793092149
 30
0.0
 10
172.2572120902786
 20
-19.77767292293446
 30
0.0
 10
172.4126266186832
 20
-19.76869403359613
 30
0.0
 10
172.8448312920375
 20
-19.7920746630339
 30
0.0
 10
173.0892857721352
 20
-19.87233136028101
 30
0.0
 10
173.3896320600508
 20
-20.09711732789347
 30
0.0
 10
173.4773941785604
 20
-20.1892837811526
 30
0.0
 10
173.6243255457745
 20
-20.40279033706547
 30
0.0
 10
173.6842929416485
 20
-20.52468206331956
 30
0.0
 10
173.7769756974032
 20
-20.79881621905924
 30
0.0
 10
173.8096381096816
 20
-20.95210366897635
 30
0.0
 10
173.8452446008262
 20
-21.2810684825639
 30
0.0
 10
173.8485907255003
 20
-21.45736494361042
 30
0.0
 10
173.8373594952506
 20
-21.64514694982964
 30
0.0
  0
SPLINE
  5
301
330
2ED
100
AcDbEntity
  8
0
  6
Continuous
 62
     7
370
    25
100
AcDbSpline
210
0.0
220
0.0
230
1.0
 70
     8
 71
     3
 72
    16
 73
    12
 74
     0
 42
0.000000001
 43
0.00000001
 40
0.0
 40
0.0
 40
0.0
 40
0.0
 40
0.2499999999999999
 40
0.2499999999999999
 40
0.4999999999999998
 40
0.4999999999999998
 40
0.7499999999999997
 40
0.7499999999999997
 40
0.8749999999999998
 40
0.8749999999999998
 40
1.0
 40
1.0
 40
1.0
 40
1.0
 10
135.1112476091545
 20
-35.07287197273106
 30
0.0
 10
134.7626848234771
 20
-35.13970070464001
 30
0.0
 10
134.4196882472978
 20
-35.21017024302423
 30
0.0
 10
133.7444330555251
 20
-35.35809977906808
 30
0.0
 10
133.4121149320504
 20
-35.43549778530903
 30
0.0
 10
132.760778383396
 20
-35.59999944962928
 30
0.0
 10
132.4401648760423
 20
-35.68707977091091
 30
0.0
 10
131.9888828875651
 20
-35.83000878348206
 30
0.0
 10
131.8430250801553
 20
-35.87975946115748
 30
0.0
 10
131.5689117693462
 20
-35.9883958835194
 30
0.0
 10
131.4375312768676
 20
-36.04703339102738
 30
0.0
 10
131.3434900795025
 20
-36.11510908833495
 30
0.0
  0
SPLINE
  5
304
330
2ED
100
AcDbEntity
  8
0
  6
Continuous
 62
     7
370
    25
100
AcDbSpline
210
0.0
220
0.0
230
1.0
 70
     8
 71
     3
 72
    16
 73
    12
 74
     0
 42
0.000000001
 43
0.00000001
 40
0.0
 40
0.0
 40
0.0
 40
0.0
 40
0.125
 40
0.125
 40
0.25
 40
0.25
 40
0.5
 40
0.5
 40
0.75
 40
0.75
 40
1.0
 40
1.0
 40
1.0
 40
1.0
 10
131.9836856230424
 20
-37.0611112300849
 30
0.0
 10
132.1449923270433
 20
-37.09243221553589
 30
0.0
 10
132.3249645975123
 20
-37.10559765404354
 30
0.0
 10
132.6823640499929
 20
-37.12003123614295
 30
0.0
 10
132.8620854860124
 20
-37.12032005892256
 30
0.0
 10
133.4028063754808
 20
-37.10955284089638
 30
0.0
 10
133.7668047546638
 20
-37.08658134087153
 30
0.0
 10
134.4859105409217
 20
-37.0222207109035
 30
0.0
 10
134.8423139339322
 20
-36.98041295016731
 30
0.0
 10
135.5499905493816
 20
-36.88039180171913
 30
0.0
 10
135.9012377079227
 20
-36.82211395798775
 30
0.0
 10
136.2498004936001
 20
-36.7552852260788
 30
0.0
  0
LWPOLYLINE
  5
306
330
2ED
100
AcDbEntity
  8
0
  6
Continuous
 62
     7
370
    25
100
AcDbPolyline
 90
        6
 70
   128
 43
0.0
 10
166.7445813584
 20
-23.1107034318
 10
166.7559436024
 20
-23.1200780842
 10
166.7630027745
 20
-23.124214487
 10
166.7650557639
 20
-23.1225707041
 10
166.7620236755
 20
-23.1152099051
 10
166.7540230306
 20
-23.1024149614
  0
SPLINE
  5
308
330
2ED
100
AcDbEntity
  8
0
  6
Continuous
 62
     7
370
    25
100
AcDbSpline
210
0.0
220
0.0
230
1.0
 70
     8
 71
     3
 72
    18
 73
    14
 74
     0
 42
0.000000001
 43
0.00000001
 40
0.0
 40
0.0
 40
0.0
 40
0.0
 40
0.2500000000000033
 40
0.2500000000000033
 40
0.3750000000000033
 40
0.3750000000000033
 40
0.5000000000000032
 40
0.5000000000000032
 40
0.7500000000000007
 40
0.7500000000000007
 40
0.8750000000000003
 40
0.8750000000000003
 40
1.0
 40
1.0
 40
1.0
 40
1.0
 10
172.0763792848361
 20
-14.16268498051026
 30
0.0
 10
172.5530868523003
 20
-13.53862441863565
 30
0.0
 10
173.0263894160519
 20
-12.94325174611376
 30
0.0
 10
173.7340423660812
 20
-12.09634447697896
 30
0.0
 10
173.9695629896897
 20
-11.8217989732636
 30
0.0
 10
174.4406459890643
 20
-11.28964820958667
 30
0.0
 10
174.6758669781694
 20
-11.0325730701335
 30
0.0
 10
175.3657984390782
 20
-10.30726418395221
 30
0.0
 10
175.8106107057891
 20
-9.877799416869768
 30
0.0
 10
176.461589848011
 20
-9.322350099825012
 30
0.0
 10
176.6768713063249
 20
-9.151435799366448
 30
0.0
 10
177.0962668516235
 20
-8.847006140804885
 30
0.0
 10
177.3007341903125
 20
-8.713042367355387
 30
0.0
 10
177.5006236065643
 20
-8.597964534729906
 30
0.0
  0
SPLINE
  5
309
330
2ED
100
AcDbEntity
  8
0
  6
Continuous
 62
     7
370
    25
100
AcDbSpline
210
0.0
220
0.0
230
1.0
 70
     8
 71
     3
 72
    10
 73
     6
 74
     0
 42
0.000000001
 43
0.00000001
 40
0.0
 40
0.0
 40
0.0
 40
0.0
 40
0.5
 40
0.5
 40
1.0
 40
1.0
 40
1.0
 40
1.0
 10
177.5006236065643
 20
-8.597964534729908
 30
0.0
 10
177.55622056762
 20
-8.604969093421841
 30
0.0
 10
177.6105403760041
 20
-8.637189580607158
 30
0.0
 10
177.6815019393773
 20
-8.73034073221305
 30
0.0
 10
177.6974449564852
 20
-8.790946132955785
 30
0.0
 10
177.68708562932
 20
-8.844718937664153
 30
0.0
  0
SPLINE
  5
30A
330
2ED
100
AcDbEntity
  8
0
  6
Continuous
 62
     7
370
    25
100
AcDbSpline
210
0.0
220
0.0
230
1.0
 70
     8
 71
     3
 72
    18
 73
    14
 74
     0
 42
0.000000001
 43
0.00000001
 40
0.0
 40
0.0
 40
0.0
 40
0.0
 40
0.1250000000000019
 40
0.1250000000000019
 40
0.2500000000000038
 40
0.2500000000000038
 40
0.5000000000000056
 40
0.5000000000000056
 40
0.625000000000005
 40
0.625000000000005
 40
0.7500000000000044
 40
0.7500000000000044
 40
1.0
 40
1.0
 40
1.0
 40
1.0
 10
-177.5006236065643
 20
36.12798854974494
 30
0.0
 10
-177.5790570392695
 20
35.9976087015221
 30
0.0
 10
-177.6509477442617
 20
35.84694184225144
 30
0.0
 10
-177.7802018042085
 20
35.50595779250513
 30
0.0
 10
-177.8375433077661
 20
35.31514492813432
 30
0.0
 10
-177.9826309793688
 20
34.69595927675729
 30
0.0
 10
-178.0450180943311
 20
34.21831346938358
 30
0.0
 10
-178.0810502853606
 20
33.41062101892981
 30
0.0
 10
-178.0833422482057
 20
33.12419958060501
 30
0.0
 10
-178.0674349311731
 20
32.53069380419161
 30
0.0
 10
-178.049401603066
 20
32.22420350524569
 30
0.0
 10
-177.965409937536
 20
31.27755838951729
 30
0.0
 10
-177.8697188135776
 20
30.61049925059097
 30
0.0
 10
-177.7332335330308
 20
29.90918365153781
 30
0.0
  0
SPLINE
  5
30C
330
2ED
100
AcDbEntity
  8
0
  6
Continuous
 62
     7
370
    25
100
AcDbSpline
210
0.0
220
0.0
230
1.0
 70
     8
 71
     3
 72
    11
 73
     7
 74
     0
 42
0.000000001
 43
0.00000001
 40
0.0
 40
0.0
 40
0.0
 40
0.0
 40
0.1961315813974162
 40
0.4369526357866193
 40
0.7016337622556275
 40
0.9999999999999999
 40
0.9999999999999999
 40
0.9999999999999999
 40
0.9999999999999999
 10
173.612957521544
 20
-21.87317665479553
 30
0.0
 10
173.625924330943
 20
-21.54305243513029
 30
0.0
 10
173.6548124962465
 20
-20.80758369066817
 30
0.0
 10
173.2078712407757
 20
-20.04895075823426
 30
0.0
 10
172.274910734821
 20
-19.72606105713845
 30
0.0
 10
171.3102394453892
 20
-20.065879758271
 30
0.0
 10
170.7990473830839
 20
-20.24595417796701
 30
0.0
  0
SPLINE
  5
30D
330
2ED
100
AcDbEntity
  8
0
  6
Continuous
 62
     7
370
    25
100
AcDbSpline
210
0.0
220
0.0
230
1.0
 70
     8
 71
     3
 72
    12
 73
     8
 74
     0
 42
0.000000001
 43
0.00000001
 40
0.0
 40
0.0
 40
0.0
 40
0.0
 40
0.4999999999999347
 40
0.4999999999999347
 40
0.7499999999999674
 40
0.7499999999999674
 40
1.0
 40
1.0
 40
1.0
 40
1.0
 10
173.8373594952506
 20
-21.64514694982965
 30
0.0
 10
173.8151607850039
 20
-21.69759305418811
 30
0.0
 10
173.7882336612208
 20
-21.74678064720037
 30
0.0
 10
173.7354523485495
 20
-21.8120232322298
 30
0.0
 10
173.7157274701676
 20
-21.832341006567
 30
0.0
 10
173.6699540334434
 20
-21.86424955515558
 30
0.0
 10
173.6431090711687
 20
-21.87697539298273
 30
0.0
 10
173.6129575215427
 20
-21.87317665479238
 30
0.0
  0
SPLINE
  5
30F
330
2ED
100
AcDbEntity
  8
0
  6
Continuous
 62
     7
370
    25
100
AcDbSpline
210
0.0
220
0.0
230
1.0
 70
     8
 71
     3
 72
    16
 73
    12
 74
     0
 42
0.000000001
 43
0.00000001
 40
0.0
 40
0.0
 40
0.0
 40
0.0
 40
0.125000000000006
 40
0.125000000000006
 40
0.2500000000000119
 40
0.2500000000000119
 40
0.500000000000008
 40
0.500000000000008
 40
0.750000000000004
 40
0.750000000000004
 40
1.0
 40
1.0
 40
1.0
 40
1.0
 10
131.2772170356543
 20
-36.08699674262938
 30
0.0
 10
131.3624610028477
 20
-36.01035917508562
 30
0.0
 10
131.4868339514694
 20
-35.94084699922609
 30
0.0
 10
131.7520303612573
 20
-35.81119629090114
 30
0.0
 10
131.8951014040957
 20
-35.75107722570024
 30
0.0
 10
132.3410952971408
 20
-35.57738226195678
 30
0.0
 10
132.6626913030629
 20
-35.47000282294566
 30
0.0
 10
133.3182825922153
 20
-35.26664418064512
 30
0.0
 10
133.6540518547297
 20
-35.17055873045113
 30
0.0
 10
134.3382765571125
 20
-34.98629598004364
 30
0.0
 10
134.686803789679
 20
-34.898189809993
 30
0.0
 10
135.042006828107
 20
-34.81428958158675
 30
0.0
  0
SPLINE
  5
311
330
2ED
100
AcDbEntity
  8
0
  6
Continuous
 62
     7
370
    25
100
AcDbSpline
210
0.0
220
0.0
230
1.0
 70
     8
 71
     3
 72
    16
 73
    12
 74
     0
 42
0.000000001
 43
0.00000001
 40
0.0
 40
0.0
 40
0.0
 40
0.0
 40
0.1250000000000064
 40
0.1250000000000064
 40
0.2500000000000128
 40
0.2500000000000128
 40
0.5000000000000085
 40
0.5000000000000085
 40
0.7500000000000043
 40
0.7500000000000043
 40
1.0
 40
1.0
 40
1.0
 40
1.0
 10
-149.6253311825337
 20
-0.6966022255830497
 30
0.0
 10
-149.7654786520226
 20
-0.5915680061913519
 30
0.0
 10
-149.9223509072796
 20
-0.4866222652594229
 30
0.0
 10
-150.2344597682656
 20
-0.28423792949301
 30
0.0
 10
-150.3911694461281
 20
-0.1863500436049825
 30
0.0
 10
-150.8618172226232
 20
0.1028309152694019
 30
0.0
 10
-151.1779081134522
 20
0.2905513515321662
 30
0.0
 10
-151.7973695779099
 20
0.6545515411114141
 30
0.0
 10
-152.1020332270804
 20
0.8313239539193135
 30
0.0
 10
-152.7025516620636
 20
1.177449125201434
 30
0.0
 10
-152.9983764647843
 20
1.346736021028044
 30
0.0
 10
-153.2895992969342
 20
1.512078253897735
 30
0.0
  0
SPLINE
  5
318
330
2ED
100
AcDbEntity
  8
0
  6
Continuous
 62
     7
370
    25
100
AcDbSpline
210
0.0
220
0.0
230
1.0
 70
     8
 71
     3
 72
    10
 73
     6
 74
     0
 42
0.000000001
 43
0.00000001
 40
0.0
 40
0.0
 40
0.0
 40
0.0
 40
0.6868909134665964
 40
0.9412868233669793
 40
1.0
 40
1.0
 40
1.0
 40
1.0
 10
133.2653761994096
 20
-37.09453550136403
 30
0.0
 10
132.9512555943068
 20
-37.11559516121446
 30
0.0
 10
132.5207977432352
 20
-37.14445444575757
 30
0.0
 10
132.0915774161458
 20
-37.10338709241988
 30
0.0
 10
131.9695384560106
 20
-37.08050011558916
 30
0.0
 10
131.9466541152786
 20
-37.07620842566048
 30
0.0
  0
SPLINE
  5
31D
330
2ED
100
AcDbEntity
  8
0
  6
Continuous
 62
     7
370
    25
100
AcDbSpline
210
0.0
220
0.0
230
1.0
 70
     8
 71
     3
 72
    10
 73
     6
 74
     0
 42
0.000000001
 43
0.00000001
 40
0.0
 40
0.0
 40
0.0
 40
0.0
 40
0.2606374884012905
 40
0.8613571959218603
 40
1.0
 40
1.0
 40
1.0
 40
1.0
 10
-149.2537946924883
 20
-1.621476356798789
 30
0.0
 10
-149.2199582174442
 20
-1.634384635172912
 30
0.0
 10
-149.1081351199969
 20
-1.677044033606787
 30
0.0
 10
-149.0194307053922
 20
-1.686293848301815
 30
0.0
 10
-148.9659269496046
 20
-1.685889694241987
 30
0.0
 10
-148.9558941029094
 20
-1.685813908614158
 30
0.0
  0
SPLINE
  5
31F
330
2ED
100
AcDbEntity
  8
0
  6
Continuous
 62
     7
370
    25
100
AcDbSpline
210
0.0
220
0.0
230
1.0
 70
     8
 71
     3
 72
    16
 73
    12
 74
     0
 42
0.000000001
 43
0.00000001
 40
0.0
 40
0.0
 40
0.0
 40
0.0
 40
0.25
 40
0.25
 40
0.5
 40
0.5
 40
0.75
 40
0.75
 40
0.875
 40
0.875
 40
1.0
 40
1.0
 40
1.0
 40
1.0
 10
-152.2030358455194
 20
-0.4136438192763152
 30
0.0
 10
-151.9095473276721
 20
-0.5613634120053357
 30
0.0
 10
-151.6203138122047
 20
-0.700334235837749
 30
0.0
 10
-151.0500374942474
 20
-0.9613623198739515
 30
0.0
 10
-150.7689368444431
 20
-1.08348804043125
 30
0.0
 10
-150.2174414426486
 20
-1.30792937313491
 30
0.0
 10
-149.9456404719032
 20
-1.411004061864811
 30
0.0
 10
-149.5636533907475
 20
-1.53802155711897
 30
0.0
 10
-149.4402943000283
 20
-1.575917291509644
 30
0.0
 10
-149.2093890883743
 20
-1.635603130156003
 30
0.0
 10
-149.0990695403812
 20
-1.659011023026212
 30
0.0
 10
-149.0221671467579
 20
-1.657701562910334
 30
0.0
  0
SPLINE
  5
323
330
2ED
100
AcDbEntity
  8
0
  6
Continuous
 62
     7
370
    25
100
AcDbSpline
210
0.0
220
0.0
230
1.0
 70
     8
 71
     3
 72
    16
 73
    12
 74
     0
 42
0.000000001
 43
0.00000001
 40
0.0
 40
0.0
 40
0.0
 40
0.0
 40
0.125
 40
0.125
 40
0.25
 40
0.25
 40
0.5
 40
0.5
 40
0.75
 40
0.75
 40
1.0
 40
1.0
 40
1.0
 40
1.0
 10
-149.6623626902976
 20
-0.711699421159031
 30
0.0
 10
-149.8065305905568
 20
-0.6136121985168257
 30
0.0
 10
-149.9654419165406
 20
-0.5184013596318867
 30
0.0
 10
-150.279633269866
 20
-0.33564551652422
 30
0.0
 10
-150.4368559891948
 20
-0.2477102816785381
 30
0.0
 10
-150.9082819713417
 20
0.011469008120598
 30
0.0
 10
-151.2234678139165
 20
0.1786525181072963
 30
0.0
 10
-151.8427324533143
 20
0.5032348851631719
 30
0.0
 10
-152.1479183726545
 20
0.6609508512252122
 30
0.0
 10
-152.7506161142886
 20
0.9698873228571104
 30
0.0
 10
-153.0481002121177
 20
1.121049841342384
 30
0.0
 10
-153.3415887299649
 20
1.268769434071407
 30
0.0
  0
SPLINE
  5
32A
330
2ED
100
AcDbEntity
  8
0
  6
Continuous
 62
     7
370
    25
100
AcDbSpline
210
0.0
220
0.0
230
1.0
 70
     8
 71
     3
 72
    18
 73
    14
 74
     0
 42
0.000000001
 43
0.00000001
 40
0.0
 40
0.0
 40
0.0
 40
0.0
 40
0.2500000000000006
 40
0.2500000000000006
 40
0.3750000000000009
 40
0.3750000000000009
 40
0.5000000000000012
 40
0.5000000000000012
 40
0.7500000000000017
 40
0.7500000000000017
 40
0.8750000000000008
 40
0.8750000000000008
 40
1.0
 40
1.0
 40
1.0
 40
1.0
 10
-177.869821726396
 20
29.77605519262392
 30
0.0
 10
-178.0102561387981
 20
30.46873269280542
 30
0.0
 10
-178.1101418668381
 20
31.12803012004929
 30
0.0
 10
-178.200622177727
 20
32.06418651971042
 30
0.0
 10
-178.2208517933521
 20
32.36737394049874
 30
0.0
 10
-178.2411944933527
 20
32.954641959094
 30
0.0
 10
-178.2411384369681
 20
33.23806272317941
 30
0.0
 10
-178.2116896469165
 20
34.03756895721126
 30
0.0
 10
-178.1535709233243
 20
34.51069313829246
 30
0.0
 10
-178.014549510579
 20
35.12402108752453
 30
0.0
 10
-177.9591826425311
 20
35.31300898067531
 30
0.0
 10
-177.8337798309828
 20
35.65041921955593
 30
0.0
 10
-177.7637412008687
 20
35.79942457899857
 30
0.0
 10
-177.68708562932
 20
35.92821816023192
 30
0.0
  0
LWPOLYLINE
  5
32E
330
2ED
100
AcDbEntity
  8
0
  6
Continuous
 62
     7
370
    25
100
AcDbPolyline
 90
        9
 70
   128
 43
0.0
 10
-177.733233533
 20
29.9091836515
 10
-177.7691942269
 20
29.8969741564
 10
-177.8017379041
 20
29.8822266934
 10
-177.8296139294
 20
29.8655079991
 10
-177.8517510427
 20
29.8474605637
 10
-177.8672985272
 20
29.8287779399
 10
-177.8756589017
 20
29.8101780906
 10
-177.8765108818
 20
29.7923757974
 10
-177.8698217264
 20
29.7760551926
  0
SPLINE
  5
32F
330
2ED
100
AcDbEntity
  8
0
  6
Continuous
 62
     7
370
    25
100
AcDbSpline
210
0.0
220
0.0
230
1.0
 70
     8
 71
     3
 72
    10
 73
     6
 74
     0
 42
0.000000001
 43
0.00000001
 40
0.0
 40
0.0
 40
0.0
 40
0.0
 40
0.5
 40
0.5
 40
1.0
 40
1.0
 40
1.0
 40
1.0
 10
-177.68708562932
 20
35.92821816023193
 30
0.0
 10
-177.6974405950612
 20
35.98457753193698
 30
0.0
 10
-177.6816280026536
 20
36.04097220366431
 30
0.0
 10
-177.6106513216122
 20
36.11642545202989
 30
0.0
 10
-177.5561985222536
 20
36.13499033098594
 30
0.0
 10
-177.5006236065647
 20
36.12798854974924
 30
0.0
  0
LINE
  5
331
330
2ED
100
AcDbEntity
  8
0
  6
Continuous
 62
     7
370
    25
100
AcDbLine
 10
-149.0351167109
 20
-1.6810733709
 30
0.0
 11
132.1071145819
 21
-37.1016651169
 31
0.0
  0
LINE
  5
332
330
2ED
100
AcDbEntity
  8
0
  6
Continuous
 62
     7
370
    25
100
AcDbLine
 10
-172.392249088
 20
16.6673769109
 30
0.0
 11
-171.2536962036
 21
14.9849636575
 31
0.0
  0
LINE
  5
333
330
2ED
100
AcDbEntity
  8
0
  6
Continuous
 62
     7
370
    25
100
AcDbLine
 10
-177.733233533
 20
29.9091836515
 30
0.0
 11
172.0763792848
 21
-14.1626849805
 31
0.0
  0
LINE
  5
334
330
2ED
100
AcDbEntity
  8
0
  6
Continuous
 62
     7
370
    25
100
AcDbLine
 10
-153.2895992969
 20
1.5120782539
 30
0.0
 11
135.0420068281
 21
-34.8142895816
 31
0.0
  0
LINE
  5
335
330
2ED
100
AcDbEntity
  8
0
  6
Continuous
 62
     7
370
    25
100
AcDbLine
 10
150.6230613731
 20
-32.7345398614
 30
0.0
 11
149.4845084886
 21
-31.0521266081
 31
0.0
  0
LINE
  5
336
330
2ED
100
AcDbEntity
  8
0
  6
Continuous
 62
     7
370
    25
100
AcDbLine
 10
131.3434900795
 20
-36.1151090883
 30
0.0
 11
131.983685623
 21
-37.0611112301
 31
0.0
  0
LINE
  5
337
330
2ED
100
AcDbEntity
  8
0
  6
Continuous
 62
     7
370
    25
100
AcDbLine
 10
-177.5006236066
 20
36.1279885497
 30
0.0
 11
177.5006236066
 21
-8.5979645347
 31
0.0
  0
LINE
  5
338
330
2ED
100
AcDbEntity
  8
0
  6
Continuous
 62
     7
370
    25
100
AcDbLine
 10
168.9759311502
 20
-21.2889662455
 30
0.0
 11
173.6129575215
 21
-21.8731766548
 31
0.0
  0
LINE
  5
339
330
2ED
100
AcDbEntity
  8
0
  6
Continuous
 62
     7
370
    25
100
AcDbLine
 10
131.0374730615
 20
-36.2599472034
 30
0.0
 11
-149.1935955712
 21
-0.9541511622
 31
0.0
  0
LINE
  5
33A
330
2ED
100
AcDbEntity
  8
0
  6
Continuous
 62
     7
370
    25
100
AcDbLine
 10
131.4875986204
 20
-36.9250873268
 30
0.0
 11
131.0374730615
 21
-36.2599472034
 31
0.0
  0
LINE
  5
33B
330
2ED
100
AcDbEntity
  8
0
  6
Continuous
 62
     7
370
    25
100
AcDbLine
 10
-148.7434700122
 20
-1.6192912856
 30
0.0
 11
131.4875986204
 21
-36.9250873268
 31
0.0
  0
LINE
  5
33C
330
2ED
100
AcDbEntity
  8
0
  6
Continuous
 62
     7
370
    25
100
AcDbLine
 10
-149.1935955712
 20
-0.9541511622
 30
0.0
 11
-148.7434700122
 21
-1.6192912856
 31
0.0
  0
LINE
  5
33D
330
2ED
100
AcDbEntity
  8
0
  6
Continuous
 62
     7
370
    25
100
AcDbLine
 10
-163.6761591263
 20
6.8634398665
 30
0.0
 11
-164.8147120107
 21
8.5458531199
 31
0.0
  0
LINE
  5
33E
330
2ED
100
AcDbEntity
  8
0
  6
Continuous
 62
     7
370
    25
100
AcDbLine
 10
-149.0221671468
 20
-1.6577015629
 30
0.0
 11
-149.6623626903
 21
-0.7116994212
 31
0.0
  0
LINE
  5
33F
330
2ED
100
AcDbEntity
  8
0
  6
Continuous
 62
     8
370
    25
100
AcDbLine
 10
-165.5067024444
 20
9.3948926528
 30
0.0
 11
-164.735105579
 21
8.7716452439
 31
0.0
  0
ARC
  5
340
330
2ED
100
AcDbEntity
  8
0
  6
Continuous
 62
     7
370
    25
100
AcDbCircle
 10
-142.6829350215
 20
36.8985290599
 30
0.0
 40
35.74037457816586
100
AcDbArc
 50
191.277370028
 51
230.3125704755
  0
ARC
  5
341
330
2ED
100
AcDbEntity
  8
0
  6
Continuous
 62
     7
370
    25
100
AcDbCircle
 10
131.4939730314
 20
17.3894893439
 30
0.0
 40
51.40497448611737
100
AcDbArc
 50
290.3623784291
 51
322.1355031672
  0
ARC
  5
342
330
2ED
100
AcDbEntity
  8
0
  6
Continuous
 62
     7
370
    25
100
AcDbCircle
 10
118.0265172203
 20
53.6465429328
 30
0.0
 40
90.08243877545387
100
AcDbArc
 50
280.8878949148
 51
290.3687418437
  0
ARC
  5
343
330
2ED
100
AcDbEntity
  8
0
  6
Continuous
 62
     7
370
    25
100
AcDbCircle
 10
-122.7645782035
 20
62.2904669321
 30
0.0
 40
68.01315639688315
100
AcDbArc
 50
231.895750061
 51
243.3326053266
  0
ARC
  5
344
330
2ED
100
AcDbEntity
  8
0
  6
Continuous
 62
     7
370
    25
100
AcDbCircle
 10
131.5193992601
 20
17.3518546219
 30
0.0
 40
51.63032586093983
100
AcDbArc
 50
290.3623784291
 51
322.1355031672
  0
ARC
  5
345
330
2ED
100
AcDbEntity
  8
0
  6
Continuous
 62
     7
370
    25
100
AcDbCircle
 10
114.9525345268
 20
3.0435684261
 30
0.0
 40
63.85103976036492
100
AcDbArc
 50
337.2530957885
 51
349.2696058931
  0
ARC
  5
346
330
2ED
100
AcDbEntity
  8
0
  6
Continuous
 62
     7
370
    25
100
AcDbCircle
 10
132.5850498038
 20
15.7971553663
 30
0.0
 40
51.77543146174516
100
AcDbArc
 50
290.3888353057
 51
311.2957315023
  0
ARC
  5
347
330
2ED
100
AcDbEntity
  8
0
  6
Continuous
 62
     7
370
    25
100
AcDbCircle
 10
171.6243322236
 20
-14.8905340647
 30
0.0
 40
0.856802681452886
100
AcDbArc
 50
40.1006738252
 51
58.156720614
  0
ARC
  5
348
330
2ED
100
AcDbEntity
  8
0
  6
Continuous
 62
     7
370
    25
100
AcDbCircle
 10
150.4631742634
 20
-30.4977312548
 30
0.0
 40
1.124784826758109
100
AcDbArc
 50
195.7594853931
 51
209.5307199087
  0
ARC
  5
349
330
2ED
100
AcDbEntity
  8
0
  6
Continuous
 62
     7
370
    25
100
AcDbCircle
 10
118.0547011235
 20
53.6014087399
 30
0.0
 40
90.29979976680009
100
AcDbArc
 50
280.8878949148
 51
290.3687418437
  0
ARC
  5
34A
330
2ED
100
AcDbEntity
  8
0
  6
Continuous
 62
     7
370
    25
100
AcDbCircle
 10
119.1932540079
 20
51.9189954866
 30
0.0
 40
90.29979976679864
100
AcDbArc
 50
280.8878949148
 51
290.3687418437
  0
ARC
  5
34B
330
2ED
100
AcDbEntity
  8
0
  6
Continuous
 62
     7
370
    25
100
AcDbCircle
 10
135.7165353957
 20
-34.7722321336
 30
0.0
 40
0.6758384550866822
100
AcDbArc
 50
183.567823445
 51
206.4130892904
  0
ARC
  5
34C
330
2ED
100
AcDbEntity
  8
0
  6
Continuous
 62
     7
370
    25
100
AcDbCircle
 10
131.3878495754
 20
-35.9183610461
 30
0.0
 40
0.2016867794738974
100
AcDbArc
 50
236.7333383233
 51
257.2943438115
  0
ARC
  5
34D
330
2ED
100
AcDbEntity
  8
0
  6
Continuous
 62
     7
370
    25
100
AcDbCircle
 10
130.4461959263
 20
-35.1876768726
 30
0.0
 40
1.224488592378524
100
AcDbArc
 50
298.8734596415
 51
312.7396360433
  0
ARC
  5
34E
330
2ED
100
AcDbEntity
  8
0
  6
Continuous
 62
     7
370
    25
100
AcDbCircle
 10
-148.202683763
 20
1.1975776278
 30
0.0
 40
2.368932881539531
100
AcDbArc
 50
233.0911617979
 51
245.2730354424
  0
ARC
  5
34F
330
2ED
100
AcDbEntity
  8
0
  6
Continuous
 62
     7
370
    25
100
AcDbCircle
 10
130.6219817589
 20
-34.986389778
 30
0.0
 40
1.339619923054872
100
AcDbArc
 50
288.0686385792
 51
302.5878286891
  0
ARC
  5
350
330
2ED
100
AcDbEntity
  8
0
  6
Continuous
 62
     7
370
    25
100
AcDbCircle
 10
132.3611823836
 20
-34.7117179478
 30
0.0
 40
2.379527810104552
100
AcDbArc
 50
248.4615924636
 51
260.8718276939
  0
ARC
  5
351
330
2ED
100
AcDbEntity
  8
0
  6
Continuous
 62
     7
370
    25
100
AcDbCircle
 10
131.9433602168
 20
-37.0151635142
 30
0.0
 40
0.0611337139588578
100
AcDbArc
 50
273.0886053201
 51
311.271379382
  0
ARC
  5
352
330
2ED
100
AcDbEntity
  8
0
  6
Continuous
 62
     7
370
    25
100
AcDbCircle
 10
-149.0034518179
 20
-1.1615256349
 30
0.0
 40
0.5264408135701737
100
AcDbArc
 50
275.1830637202
 51
299.5938226559
  0
ARC
  5
353
330
2ED
100
AcDbEntity
  8
0
  6
Continuous
 62
     7
370
    25
100
AcDbCircle
 10
132.3711763035
 20
-35.0138623176
 30
0.0
 40
2.105585561762428
100
AcDbArc
 50
245.1884457695
 51
258.3684577057
  0
ARC
  5
354
330
2ED
100
AcDbEntity
  8
0
  6
Continuous
 62
     7
370
    25
100
AcDbCircle
 10
-121.6043605645
 20
60.5113977581
 30
0.0
 40
68.17726615345912
100
AcDbArc
 50
231.895750061
 51
243.3326053266
  0
ARC
  5
355
330
2ED
100
AcDbEntity
  8
0
  6
Continuous
 62
     7
370
    25
100
AcDbCircle
 10
-122.742913449
 20
62.1938110115
 30
0.0
 40
68.17726615345245
100
AcDbArc
 50
231.895750061
 51
243.3326053266
  0
ARC
  5
356
330
2ED
100
AcDbEntity
  8
0
  6
Continuous
 62
     7
370
    25
100
AcDbCircle
 10
-153.0754059515
 20
1.3391012443
 30
0.0
 40
0.2753176984198935
100
AcDbArc
 50
141.0765536373
 51
194.800661264
  0
ARC
  5
357
330
2ED
100
AcDbEntity
  8
0
  6
Continuous
 62
     7
370
    25
100
AcDbCircle
 10
-149.675040209
 20
-0.6276376783
 30
0.0
 40
0.0850123290349946
100
AcDbArc
 50
278.576260005
 51
305.7837246981
  0
ARC
  5
358
330
2ED
100
AcDbEntity
  8
0
  6
Continuous
 62
     7
370
    25
100
AcDbCircle
 10
-164.5873776492
 20
8.5926322373
 30
0.0
 40
0.2320973885359481
100
AcDbArc
 50
129.5306669686
 51
191.6275854404
  0
ARC
  5
359
330
2ED
100
AcDbEntity
  8
0
  6
Continuous
 62
     7
370
    25
100
AcDbCircle
 10
-148.2539294251
 20
1.4370353029
 30
0.0
 40
2.569191541470726
100
AcDbArc
 50
236.7563214699
 51
248.5466289675
  0
ARC
  5
35A
330
2ED
100
AcDbEntity
  8
0
  6
Continuous
 62
     7
370
    25
100
AcDbCircle
 10
-148.9864712667
 20
-0.8864136762
 30
0.0
 40
0.7721134632024133
100
AcDbArc
 50
267.350191873
 51
288.3440446052
  0
ARC
  5
35B
330
2ED
100
AcDbEntity
  8
0
  6
Continuous
 62
     7
370
    25
100
AcDbCircle
 10
-142.6582284602
 20
36.7996590177
 30
0.0
 40
35.90525464377167
100
AcDbArc
 50
191.2806482436
 51
231.8966472972
  0
ARC
  5
35C
330
2ED
100
AcDbEntity
  8
0
  6
Continuous
 62
     7
370
    25
100
AcDbCircle
 10
-141.5139713402
 20
35.1369405045
 30
0.0
 40
35.9242732117187
100
AcDbArc
 50
214.1220148563
 51
231.9088716192
  0
ARC
  5
35D
330
2ED
100
AcDbEntity
  8
0
  6
Continuous
 62
     7
370
    25
100
AcDbCircle
 10
-148.9230478461
 20
-1.5162075858
 30
0.0
 40
0.1727575796265059
100
AcDbArc
 50
234.9880051823
 51
259.0396769531
  0
VIEWPORT
  5
36C
330
2ED
100
AcDbEntity
  8
0
100
AcDbViewport
 10
0.0
 20
0.0
 30
0.0
 40
205.6
 41
156.0
 68
     1
 69
     1
 12
-13.0911322451
 22
0.9264697138
 13
0.0
 23
0.0
 14
10.0
 24
10.0
 15
10.0
 25
10.0
 16
0.0
 26
0.0
 36
1.0
 17
0.0
 27
0.0
 37
0.0
 42
50.0
 43
0.0
 44
0.0
 45
27.8940017838
 50
0.0
 51
0.0
 72
   100
 90
   557152
  1

281
     0
 71
     1
 74
     0
110
0.0
120
0.0
130
0.0
111
1.0
121
0.0
131
0.0
112
0.0
122
1.0
132
0.0
 79
     0
146
0.0
  0
ENDBLK
  5
2F0
330
2ED
100
AcDbEntity
  8
0
100
AcDbBlockEnd
  0
ENDSEC
  0
SECTION
  2
ENTITIES
  0
SPLINE
  5
73
330
1F
100
AcDbEntity
  8
0
  6
Continuous
 62
     7
370
    25
100
AcDbSpline
210
0.0
220
0.0
230
1.0
 70
     8
 71
     3
 72
    18
 73
    14
 74
     0
 42
0.000000001
 43
0.00000001
 40
0.0
 40
0.0
 40
0.0
 40
0.0
 40
0.1250000000000007
 40
0.1250000000000007
 40
0.2500000000000014
 40
0.2500000000000014
 40
0.5000000000000006
 40
0.5000000000000006
 40
0.6250000000000003
 40
0.6250000000000003
 40
0.7500000000000002
 40
0.7500000000000002
 40
1.0
 40
1.0
 40
1.0
 40
1.0
 10
0.0
 20
14.36319446847651
 30
0.0
 10
-0.3894892656246471
 20
14.36355781984542
 30
0.0
 10
-0.7761583904581995
 20
14.34230165603221
 30
0.0
 10
-1.543666573435222
 20
14.25775722436552
 30
0.0
 10
-1.92515699203503
 20
14.19409640918498
 30
0.0
 10
-3.038798298542162
 20
13.94590321292176
 30
0.0
 10
-3.747829786054275
 20
13.70430150908317
 30
0.0
 10
-4.762089991208842
 20
13.2357161533025
 30
0.0
 10
-5.093803553030889
 20
13.06047148768758
 30
0.0
 10
-5.729533020088486
 20
12.68058125077431
 30
0.0
 10
-6.033219922332886
 20
12.47648858499741
 30
0.0
 10
-6.903913870249166
 20
11.82472709654921
 30
0.0
 10
-7.430886565248518
 20
11.33796132288695
 30
0.0
 10
-7.905608369075923
 20
10.80146020065695
 30
0.0
  0
LWPOLYLINE
  5
74
330
1F
100
AcDbEntity
  8
0
  6
Continuous
 62
     7
370
    25
100
AcDbPolyline
 90
        9
 70
   128
 43
0.0
 10
-8.0
 20
10.9965933029
 10
-8.0079281129
 20
10.9818342728
 10
-8.009795513
 20
10.9625492053
 10
-8.0055304372
 20
10.9394792145
 10
-7.9952967901
 20
10.9135108673
 10
-7.9794878449
 20
10.8856421127
 10
-7.9587111304
 20
10.8569439313
 10
-7.9337650843
 20
10.8285191782
 10
-7.9056083691
 20
10.8014602007
  0
SPLINE
  5
75
330
1F
100
AcDbEntity
  8
0
  6
Continuous
 62
     7
370
    25
100
AcDbSpline
210
0.0
220
0.0
230
1.0
 70
     8
 71
     3
 72
    18
 73
    14
 74
     0
 42
0.000000001
 43
0.00000001
 40
0.0
 40
0.0
 40
0.0
 40
0.0
 40
0.2500000000000033
 40
0.2500000000000033
 40
0.3750000000000033
 40
0.3750000000000033
 40
0.5000000000000032
 40
0.5000000000000032
 40
0.7500000000000007
 40
0.7500000000000007
 40
0.8750000000000003
 40
0.8750000000000003
 40
1.0
 40
1.0
 40
1.0
 40
1.0
 10
-8.000000000000004
 20
10.99659330286613
 30
0.0
 10
-7.51885302750954
 20
11.54035575198369
 30
0.0
 10
-6.984829807924039
 20
12.03324974383109
 30
0.0
 10
-6.102839560855926
 20
12.69273367761804
 30
0.0
 10
-5.795266077843384
 20
12.89915407652211
 30
0.0
 10
-5.151550454465356
 20
13.28323467432986
 30
0.0
 10
-4.815656416500946
 20
13.46038074970585
 30
0.0
 10
-3.788988773904468
 20
13.93383907261005
 30
0.0
 10
-3.071700529350345
 20
14.17768631233441
 30
0.0
 10
-1.945892044426361
 20
14.42830441672136
 30
0.0
 10
-1.560344954244898
 20
14.49263150022269
 30
0.0
 10
-0.7844372413380926
 20
14.57830645154818
 30
0.0
 10
-0.3936079478035672
 20
14.6
 30
0.0
 10
-0.0000000000000035
 20
14.6
 30
0.0
  0
SPLINE
  5
76
330
1F
100
AcDbEntity
  8
0
  6
Continuous
 62
     7
370
    25
100
AcDbSpline
210
0.0
220
0.0
230
1.0
 70
    24
 71
     3
 72
    10
 73
     6
 74
     0
 42
0.000000001
 43
0.00000001
 40
0.0
 40
0.0
 40
0.0
 40
0.0
 40
0.5
 40
0.5
 40
1.0
 40
1.0
 40
1.0
 40
1.0
 10
-0.0000000000000035
 20
14.6
 30
0.0
 10
-0.0000000000000035
 20
14.6
 30
0.0
 10
0.0
 20
14.57308380224895
 30
0.0
 10
0.0
 20
14.48376472356067
 30
0.0
 10
0.0
 20
14.42161346407491
 30
0.0
 10
0.0
 20
14.36319446847651
 30
0.0
  0
SPLINE
  5
7A
330
1F
100
AcDbEntity
  8
0
  6
Continuous
 62
     7
370
    25
100
AcDbSpline
210
0.0
220
0.0
230
1.0
 70
     8
 71
     3
 72
    14
 73
    10
 74
     0
 42
0.000000001
 43
0.00000001
 40
0.0
 40
0.0
 40
0.0
 40
0.0
 40
0.0704443761998265
 40
0.1982201616249412
 40
0.3887983126713293
 40
0.5800517731842778
 40
0.7474188508742861
 40
0.8997425076363773
 40
0.9999999999999999
 40
0.9999999999999999
 40
0.9999999999999999
 40
0.9999999999999999
 10
-9.82900228425137
 20
2.048248290564854
 30
0.0
 10
-9.660196235824586
 20
2.21351464916826
 30
0.0
 10
-9.185200728624569
 20
2.678549987413094
 30
0.0
 10
-7.986694321720052
 20
3.355554918705695
 30
0.0
 10
-6.153623175266127
 20
3.874002716882761
 30
0.0
 10
-3.937551864837966
 20
3.683140844575714
 30
0.0
 10
-2.005367629102976
 20
2.763317837557767
 30
0.0
 10
-0.7045151960128615
 20
1.534943429147039
 30
0.0
 10
-0.2001847830106502
 20
0.6307515278791752
 30
0.0
 10
0.0
 20
0.2718490011055196
 30
0.0
  0
SPLINE
  5
7E
330
1F
100
AcDbEntity
  8
0
  6
Continuous
 62
     7
370
    25
100
AcDbSpline
210
0.0
220
0.0
230
1.0
 70
     8
 71
     3
 72
    30
 73
    26
 74
     0
 42
0.000000001
 43
0.00000001
 40
0.0
 40
0.0
 40
0.0
 40
0.0
 40
0.0624999999999988
 40
0.0624999999999988
 40
0.1249999999999977
 40
0.1249999999999977
 40
0.2499999999999961
 40
0.2499999999999961
 40
0.3749999999999944
 40
0.3749999999999944
 40
0.4374999999999936
 40
0.4374999999999936
 40
0.4999999999999927
 40
0.4999999999999927
 40
0.5624999999999918
 40
0.5624999999999918
 40
0.6249999999999908
 40
0.6249999999999908
 40
0.7499999999999916
 40
0.7499999999999916
 40
0.8124999999999937
 40
0.8124999999999937
 40
0.8749999999999959
 40
0.8749999999999959
 40
1.0
 40
1.0
 40
1.0
 40
1.0
 10
0.0
 20
0.0
 30
0.0
 10
-0.1059719232131308
 20
0.2470259057675049
 30
0.0
 10
-0.228251878145326
 20
0.4865353232759794
 30
0.0
 10
-0.5058535045067459
 20
0.9501323223564521
 30
0.0
 10
-0.6622997735325487
 20
1.175598242321949
 30
0.0
 10
-1.17655710100229
 20
1.817260394255767
 30
0.0
 10
-1.571488516372009
 20
2.192344222251575
 30
0.0
 10
-2.467320892013309
 20
2.835297961185614
 30
0.0
 10
-2.946390559484382
 20
3.086894221376526
 30
0.0
 10
-3.700222314543398
 20
3.364235356487367
 30
0.0
 10
-3.959961805021669
 20
3.440289189819707
 30
0.0
 10
-4.474325961260198
 20
3.554903901868697
 30
0.0
 10
-4.730485730166349
 20
3.594318137958459
 30
0.0
 10
-5.240549867374539
 20
3.640244057271924
 30
0.0
 10
-5.494454151865164
 20
3.646738996239641
 30
0.0
 10
-5.99968598167549
 20
3.628029764742445
 30
0.0
 10
-6.251346477676931
 20
3.602482245600199
 30
0.0
 10
-6.979790085963641
 20
3.483438661472279
 30
0.0
 10
-7.438283986866805
 20
3.348148314390939
 30
0.0
 10
-8.087799175813993
 20
3.07275024395177
 30
0.0
 10
-8.29642186333635
 20
2.969192105290058
 30
0.0
 10
-8.691984010114663
 20
2.744455935476532
 30
0.0
 10
-8.880080673460153
 20
2.622792620274633
 30
0.0
 10
-9.417170211871198
 20
2.232401622569063
 30
0.0
 10
-9.739202105234007
 20
1.938551371844825
 30
0.0
 10
-10.02669213764852
 20
1.613647978369027
 30
0.0
  0
LWPOLYLINE
  5
7F
330
1F
100
AcDbEntity
  8
0
  6
Continuous
 62
     7
370
    25
100
AcDbPolyline
 90
        9
 70
   128
 43
0.0
 10
-10.0266921376
 20
1.6136479784
 10
-10.0451199693
 20
1.5986211555
 10
-10.0685956696
 20
1.5892650238
 10
-10.0962170804
 20
1.5859391341
 10
-10.1269227264
 20
1.5887712986
 10
-10.159532607
 20
1.5976526788
 10
-10.1927935426
 20
1.6122419681
 10
-10.2254273341
 20
1.6319785084
 10
-10.2561798834
 20
1.6561038355
  0
SPLINE
  5
80
330
1F
100
AcDbEntity
  8
0
  6
Continuous
 62
     7
370
    25
100
AcDbSpline
210
0.0
220
0.0
230
1.0
 70
    24
 71
     3
 72
    12
 73
     8
 74
     0
 42
0.000000001
 43
0.00000001
 40
0.0
 40
0.0
 40
0.0
 40
0.0
 40
0.4999999999999347
 40
0.4999999999999347
 40
0.7499999999999674
 40
0.7499999999999674
 40
1.0
 40
1.0
 40
1.0
 40
1.0
 10
0.0000000000064601
 20
0.2718490011047075
 30
0.0
 10
0.0000000000064601
 20
0.213255079615211
 30
0.0
 10
0.0
 20
0.1574854704955845
 30
0.0
 10
0.0
 20
0.081232059469558
 30
0.0
 10
0.0
 20
0.0570459577064698
 30
0.0
 10
0.0
 20
0.0170850983107515
 30
0.0
 10
0.0
 20
-0.000000000001059
 30
0.0
 10
0.0
 20
0.0000000000031732
 30
0.0
  0
SPLINE
  5
83
330
1F
100
AcDbEntity
  8
0
  6
Continuous
 62
     7
370
    25
100
AcDbSpline
210
0.0
220
0.0
230
1.0
 70
     8
 71
     3
 72
    16
 73
    12
 74
     0
 42
0.000000001
 43
0.00000001
 40
0.0
 40
0.0
 40
0.0
 40
0.0
 40
0.2499999999999999
 40
0.2499999999999999
 40
0.4999999999999998
 40
0.4999999999999998
 40
0.7499999999999997
 40
0.7499999999999997
 40
0.8749999999999998
 40
0.8749999999999998
 40
1.0
 40
1.0
 40
1.0
 40
1.0
 10
-25.78159566565244
 20
-9.400871287511277
 30
0.0
 10
-25.85948244217346
 20
-9.48889408880985
 30
0.0
 10
-25.92384680632825
 20
-9.58514572396086
 30
0.0
 10
-26.02645853638898
 20
-9.79349987313513
 30
0.0
 10
-26.06482926746181
 20
-9.905497959754465
 30
0.0
 10
-26.11018579651427
 20
-10.14987367409161
 30
0.0
 10
-26.11786167365842
 20
-10.28217887581121
 30
0.0
 10
-26.0893737646037
 20
-10.50485049667711
 30
0.0
 10
-26.07330135202898
 20
-10.58318492931704
 30
0.0
 10
-26.01662244073625
 20
-10.75646380246498
 30
0.0
 10
-25.97768796260006
 20
-10.85093057753765
 30
0.0
 10
-25.90679809951265
 20
-10.96249639166396
 30
0.0
  0
SPLINE
  5
86
330
1F
100
AcDbEntity
  8
0
  6
Continuous
 62
     7
370
    25
100
AcDbSpline
210
0.0
220
0.0
230
1.0
 70
     8
 71
     3
 72
    16
 73
    12
 74
     0
 42
0.000000001
 43
0.00000001
 40
0.0
 40
0.0
 40
0.0
 40
0.0
 40
0.125
 40
0.125
 40
0.25
 40
0.25
 40
0.5
 40
0.5
 40
0.75
 40
0.75
 40
1.0
 40
1.0
 40
1.0
 40
1.0
 10
-24.09605165861375
 20
-12.56473128191747
 30
0.0
 10
-23.97668593812628
 20
-12.62151269034247
 30
0.0
 10
-23.87818211331904
 20
-12.64865788658768
 30
0.0
 10
-23.69929224233891
 20
-12.68382151730847
 30
0.0
 10
-23.61958384918985
 20
-12.69023851384775
 30
0.0
 10
-23.39510034461512
 20
-12.69140807582183
 30
0.0
 10
-23.26471351915728
 20
-12.66768337900535
 30
0.0
 10
-23.0276766402003
 20
-12.59291558848152
 30
0.0
 10
-22.92118247944985
 20
-12.54119636443951
 30
0.0
 10
-22.72686911521781
 20
-12.41398419872796
 30
0.0
 10
-22.63916858011066
 20
-12.33838152163109
 30
0.0
 10
-22.56128180358964
 20
-12.25035872033251
 30
0.0
  0
SPLINE
  5
8C
330
1F
100
AcDbEntity
  8
0
  6
Continuous
 62
     7
370
    25
100
AcDbSpline
210
0.0
220
0.0
230
1.0
 70
     8
 71
     3
 72
    16
 73
    12
 74
     0
 42
0.000000001
 43
0.00000001
 40
0.0
 40
0.0
 40
0.0
 40
0.0
 40
0.2499999999999961
 40
0.2499999999999961
 40
0.4999999999999922
 40
0.4999999999999922
 40
0.7499999999999883
 40
0.7499999999999883
 40
0.8749999999999941
 40
0.8749999999999941
 40
1.0
 40
1.0
 40
1.0
 40
1.0
 10
-22.2861148137379
 20
-12.24119073050362
 30
0.0
 10
-22.37659648920054
 20
-12.34344750496728
 30
0.0
 10
-22.47854553860083
 20
-12.43104200761927
 30
0.0
 10
-22.70446486376114
 20
-12.57801543638569
 30
0.0
 10
-22.82829825982165
 20
-12.63752258604264
 30
0.0
 10
-23.1039554974617
 20
-12.72280873305955
 30
0.0
 10
-23.25578855493161
 20
-12.74927405718206
 30
0.0
 10
-23.51512930880491
 20
-12.74595382989008
 30
0.0
 10
-23.60698137511093
 20
-12.73778657188557
 30
0.0
 10
-23.8116143507466
 20
-12.6960424727803
 30
0.0
 10
-23.92412862686933
 20
-12.6635364593884
 30
0.0
 10
-24.0546978816835
 20
-12.60132307784503
 30
0.0
  0
SPLINE
  5
8E
330
1F
100
AcDbEntity
  8
0
  6
Continuous
 62
     7
370
    25
100
AcDbSpline
210
0.0
220
0.0
230
1.0
 70
     8
 71
     3
 72
    16
 73
    12
 74
     0
 42
0.000000001
 43
0.00000001
 40
0.0
 40
0.0
 40
0.0
 40
0.0
 40
0.125000000000006
 40
0.125000000000006
 40
0.2500000000000119
 40
0.2500000000000119
 40
0.500000000000008
 40
0.500000000000008
 40
0.750000000000004
 40
0.750000000000004
 40
1.0
 40
1.0
 40
1.0
 40
1.0
 10
-25.94815187643903
 20
-10.92590459573882
 30
0.0
 10
-26.02579715402485
 20
-10.80387981950713
 30
0.0
 10
-26.07175811424692
 20
-10.69615937867159
 30
0.0
 10
-26.13810233899052
 20
-10.49812991528093
 30
0.0
 10
-26.15739028161843
 20
-10.40795518790579
 30
0.0
 10
-26.19225613796655
 20
-10.15094736197445
 30
0.0
 10
-26.18447072953773
 20
-9.997021801598114
 30
0.0
 10
-26.13337544143634
 20
-9.713032521747332
 30
0.0
 10
-26.08938546116948
 20
-9.582876106322272
 30
0.0
 10
-25.97100692253028
 20
-9.340745455982644
 30
0.0
 10
-25.89647443145527
 20
-9.228891473744085
 30
0.0
 10
-25.80599275599263
 20
-9.126634699280428
 30
0.0
  0
LINE
  5
96
330
1F
100
AcDbEntity
  8
0
  6
Continuous
 62
     7
370
    25
100
AcDbLine
 10
-18.4598678778
 20
-7.6151952284
 30
0.0
 11
-21.6801817399
 21
-4.7657077956
 31
0.0
  0
LINE
  5
97
330
1F
100
AcDbEntity
  8
0
  6
Continuous
 62
     7
370
    25
100
AcDbLine
 10
-7.9056083691
 20
10.8014602007
 30
0.0
 11
-25.7815956657
 21
-9.4008712875
 31
0.0
  0
LINE
  5
98
330
1F
100
AcDbEntity
  8
0
  6
Continuous
 62
     7
370
    25
100
AcDbLine
 10
0.0
 20
0.2718490011
 30
0.0
 11
0.0
 21
14.3631944685
 31
0.0
  0
LINE
  5
99
330
1F
100
AcDbEntity
  8
0
  6
Continuous
 62
     7
370
    25
100
AcDbLine
 10
-22.5612818036
 20
-12.2503587203
 30
0.0
 11
-10.2561798834
 21
1.6561038355
 31
0.0
  0
LINE
  5
9A
330
1F
100
AcDbEntity
  8
0
  6
Continuous
 62
     7
370
    25
100
AcDbLine
 10
-25.805992756
 20
-9.1266346993
 30
0.0
 11
-8.0
 21
10.9965933029
 31
0.0
  0
LINE
  5
9B
330
1F
100
AcDbEntity
  8
0
  6
Continuous
 62
     7
370
    25
100
AcDbLine
 10
-10.0266921376
 20
1.6136479784
 30
0.0
 11
-22.2861148137
 21
-12.2411907305
 31
0.0
  0
LINE
  5
9C
330
1F
100
AcDbEntity
  8
0
  6
Continuous
 62
     7
370
    25
100
AcDbLine
 10
-25.9067980995
 20
-10.9624963917
 30
0.0
 11
-24.0960516586
 21
-12.5647312819
 31
0.0
  0
LINE
  5
9D
330
1F
100
AcDbEntity
  8
0
  6
Continuous
 62
     7
370
    25
100
AcDbLine
 10
-24.4034873585
 20
-12.3705487872
 30
0.0
 11
-25.6766346993
 21
-11.244007244
 31
0.0
  0
LINE
  5
9E
330
1F
100
AcDbEntity
  8
0
  6
Continuous
 62
     8
370
    25
100
AcDbLine
 10
-10.2561798834
 20
1.6561038355
 30
0.0
 11
-9.8290022843
 21
2.0482482906
 31
0.0
  0
ARC
  5
9F
330
1F
100
AcDbEntity
  8
0
  6
Continuous
 62
     7
370
    25
100
AcDbCircle
 10
-21.5645321581
 20
-4.6168712052
 30
0.0
 40
0.1884864886238461
100
AcDbArc
 50
142.6915725054
 51
232.1519408557
  0
ARC
  5
A0
330
1F
100
AcDbEntity
  8
0
  6
Continuous
 62
     7
370
    25
100
AcDbCircle
 10
-18.32621657
 20
-7.4822874246
 30
0.0
 40
0.1884864886238675
100
AcDbArc
 50
224.8401873017
 51
314.3005556521
  0
ARC
  5
A1
330
1F
100
AcDbEntity
  8
0
  6
Continuous
 62
     7
370
    25
100
AcDbCircle
 10
-22.4282893533
 20
-12.1079796402
 30
0.0
 40
0.194830167789697
100
AcDbArc
 50
226.9522937499
 51
316.8642460366
  0
ARC
  5
A2
330
1F
100
AcDbEntity
  8
0
  6
Continuous
 62
     7
370
    25
100
AcDbCircle
 10
-25.6564650419
 20
-9.251535688
 30
0.0
 40
0.1948301677897026
100
AcDbArc
 50
140.1278821209
 51
230.0398344075
  0
ARC
  5
A3
330
1F
100
AcDbEntity
  8
0
  6
Continuous
 62
     7
370
    25
100
AcDbCircle
 10
-24.0095759496
 20
-12.5086654363
 30
0.0
 40
0.1030603089994861
100
AcDbArc
 50
212.9570410205
 51
244.0350871374
  0
ARC
  5
A4
330
1F
100
AcDbEntity
  8
0
  6
Continuous
 62
     7
370
    25
100
AcDbCircle
 10
-25.8616761674
 20
-10.8698387501
 30
0.0
 40
0.1030603089994079
100
AcDbArc
 50
212.95704102
 51
244.0350871369
  0
ARC
  5
A5
330
1F
100
AcDbEntity
  8
0
  6
Continuous
 62
     7
370
    25
100
AcDbCircle
 10
-24.9208459018
 20
-10.391227705
 30
0.0
 40
1.139495348206869
100
AcDbArc
 50
210.0883498425
 51
228.4505467036
  0
ARC
  5
A6
330
1F
100
AcDbEntity
  8
0
  6
Continuous
 62
     7
370
    25
100
AcDbCircle
 10
-23.6490544584
 20
-11.5165694855
 30
0.0
 40
1.139495348206729
100
AcDbArc
 50
228.5415814538
 51
246.9037783149
  0
ARC
  5
A7
330
1F
100
AcDbEntity
  8
0
  6
Continuous
 62
     7
370
    25
100
AcDbCircle
 10
-24.6826274553
 20
-10.1206419433
 30
0.0
 40
1.499999999999823
100
AcDbArc
 50
212.4689020214
 51
228.4960640787
  0
ARC
  5
A8
330
1F
100
AcDbEntity
  8
0
  6
Continuous
 62
     7
370
    25
100
AcDbCircle
 10
-23.4094801145
 20
-11.2471834865
 30
0.0
 40
1.500000000000039
100
AcDbArc
 50
228.4960640787
 51
244.523226136
  0
SPLINE
  5
AA
330
1B
100
AcDbEntity
 67
     1
  8
0
  6
Continuous
 62
     7
370
    25
100
AcDbSpline
210
0.0
220
0.0
230
1.0
 70
     8
 71
     3
 72
    18
 73
    14
 74
     0
 42
0.000000001
 43
0.00000001
 40
0.0
 40
0.0
 40
0.0
 40
0.0
 40
0.1250000000000007
 40
0.1250000000000007
 40
0.2500000000000014
 40
0.2500000000000014
 40
0.5000000000000006
 40
0.5000000000000006
 40
0.6250000000000003
 40
0.6250000000000003
 40
0.7500000000000002
 40
0.7500000000000002
 40
1.0
 40
1.0
 40
1.0
 40
1.0
 10
189.9554847021401
 20
0.0
 30
0.0
 10
189.8902198501579
 20
-0.3894892656246471
 30
0.0
 10
189.8189471032616
 20
-0.7761583904581995
 30
0.0
 10
189.662917522039
 20
-1.543666573435222
 30
0.0
 10
189.5779173687119
 20
-1.92515699203503
 30
0.0
 10
189.3056206609729
 20
-3.038798298542162
 30
0.0
 10
189.0997634774992
 20
-3.747829786054275
 30
0.0
 10
188.7478912344712
 20
-4.762089991208842
 30
0.0
 10
188.6225752197159
 20
-5.093803553030889
 30
0.0
 10
188.3605448057226
 20
-5.729533020088486
 30
0.0
 10
188.2241355770053
 20
-6.033219922332886
 30
0.0
 10
187.7983166768912
 20
-6.903913870249166
 30
0.0
 10
187.4923573850899
 20
-7.430886565248518
 30
0.0
 10
187.162798706869
 20
-7.905608369075923
 30
0.0
  0
LWPOLYLINE
  5
AB
330
1B
100
AcDbEntity
 67
     1
  8
0
  6
Continuous
 62
     7
370
    25
100
AcDbPolyline
 90
        9
 70
   128
 43
0.0
 10
186.9811031031
 20
-8.0
 10
187.0165501569
 20
-8.0079281129
 10
187.0506350004
 20
-8.009795513
 10
187.082047772
 20
-8.0055304372
 10
187.1095812966
 20
-7.9952967901
 10
187.1321774763
 20
-7.9794878449
 10
187.1489679526
 20
-7.9587111304
 10
187.1593074768
 20
-7.9337650843
 10
187.1627987069
 20
-7.9056083691
  0
SPLINE
  5
AC
330
1B
100
AcDbEntity
 67
     1
  8
0
  6
Continuous
 62
     7
370
    25
100
AcDbSpline
210
0.0
220
0.0
230
1.0
 70
     8
 71
     3
 72
    18
 73
    14
 74
     0
 42
0.000000001
 43
0.00000001
 40
0.0
 40
0.0
 40
0.0
 40
0.0
 40
0.2500000000000033
 40
0.2500000000000033
 40
0.3750000000000033
 40
0.3750000000000033
 40
0.5000000000000032
 40
0.5000000000000032
 40
0.7500000000000007
 40
0.7500000000000007
 40
0.8750000000000003
 40
0.8750000000000003
 40
1.0
 40
1.0
 40
1.0
 40
1.0
 10
186.981103103087
 20
-8.000000000000004
 30
0.0
 10
187.3088684672588
 20
-7.51885302750954
 30
0.0
 10
187.6130083864842
 20
-6.984829807924039
 30
0.0
 10
188.0361602326856
 20
-6.102839560855926
 30
0.0
 10
188.1716905207358
 20
-5.795266077843384
 30
0.0
 10
188.431997794252
 20
-5.151550454465356
 30
0.0
 10
188.5565035959193
 20
-4.815656416500946
 30
0.0
 10
188.906027457815
 20
-3.788988773904468
 30
0.0
 10
189.110442299798
 20
-3.071700529350345
 30
0.0
 10
189.3808526652104
 20
-1.945892044426361
 30
0.0
 10
189.4652751221191
 20
-1.560344954244898
 30
0.0
 10
189.6203622695248
 20
-0.7844372413380926
 30
0.0
 10
189.6912274610632
 20
-0.3936079478035672
 30
0.0
 10
189.7561484150619
 20
-0.0000000000000035
 30
0.0
  0
SPLINE
  5
AD
330
1B
100
AcDbEntity
 67
     1
  8
0
  6
Continuous
 62
     7
370
    25
100
AcDbSpline
210
0.0
220
0.0
230
1.0
 70
    24
 71
     3
 72
    10
 73
     6
 74
     0
 42
0.000000001
 43
0.00000001
 40
0.0
 40
0.0
 40
0.0
 40
0.0
 40
0.5
 40
0.5
 40
1.0
 40
1.0
 40
1.0
 40
1.0
 10
189.7561484150619
 20
-0.0000000000000035
 30
0.0
 10
189.8155840664931
 20
-0.0000000000000035
 30
0.0
 10
189.8736543842879
 20
0.0
 30
0.0
 10
189.9495154865062
 20
0.0
 30
0.0
 10
189.9665592887139
 20
0.0
 30
0.0
 10
189.9554847021401
 20
0.0
 30
0.0
  0
SPLINE
  5
AE
330
1B
100
AcDbEntity
 67
     1
  8
0
  6
Continuous
 62
     7
370
    25
100
AcDbSpline
210
0.0
220
0.0
230
1.0
 70
     8
 71
     3
 72
    18
 73
    14
 74
     0
 42
0.000000001
 43
0.00000001
 40
0.0
 40
0.0
 40
0.0
 40
0.0
 40
0.1250000000000019
 40
0.1250000000000019
 40
0.2500000000000038
 40
0.2500000000000038
 40
0.5000000000000056
 40
0.5000000000000056
 40
0.625000000000005
 40
0.625000000000005
 40
0.7500000000000044
 40
0.7500000000000044
 40
1.0
 40
1.0
 40
1.0
 40
1.0
 10
-189.7561484150619
 20
0.0
 30
0.0
 10
-189.6912274610633
 20
-0.393607947803562
 30
0.0
 10
-189.6203622695249
 20
-0.7844372413380908
 30
0.0
 10
-189.4652751221191
 20
-1.560344954244897
 30
0.0
 10
-189.3808526652103
 20
-1.945892044426356
 30
0.0
 10
-189.110442299798
 20
-3.071700529350342
 30
0.0
 10
-188.906027457815
 20
-3.788988773904467
 30
0.0
 10
-188.5565035959193
 20
-4.815656416500943
 30
0.0
 10
-188.431997794252
 20
-5.151550454465354
 30
0.0
 10
-188.1716905207358
 20
-5.795266077843381
 30
0.0
 10
-188.0361602326857
 20
-6.102839560855929
 30
0.0
 10
-187.6130083864842
 20
-6.984829807924043
 30
0.0
 10
-187.3088684672588
 20
-7.518853027509534
 30
0.0
 10
-186.981103103087
 20
-7.999999999999996
 30
0.0
  0
LWPOLYLINE
  5
AF
330
1B
100
AcDbEntity
 67
     1
  8
0
  6
Continuous
 62
     7
370
    25
100
AcDbPolyline
 90
        9
 70
   128
 43
0.0
 10
-186.9811031031
 20
-8.0
 10
-187.0165501569
 20
-8.0079281129
 10
-187.0506350004
 20
-8.009795513
 10
-187.082047772
 20
-8.0055304372
 10
-187.1095812966
 20
-7.9952967901
 10
-187.1321774763
 20
-7.9794878449
 10
-187.1489679526
 20
-7.9587111304
 10
-187.1593074768
 20
-7.9337650843
 10
-187.1627987069
 20
-7.9056083691
  0
SPLINE
  5
B0
330
1B
100
AcDbEntity
 67
     1
  8
0
  6
Continuous
 62
     7
370
    25
100
AcDbSpline
210
0.0
220
0.0
230
1.0
 70
     8
 71
     3
 72
    18
 73
    14
 74
     0
 42
0.000000001
 43
0.00000001
 40
0.0
 40
0.0
 40
0.0
 40
0.0
 40
0.2500000000000006
 40
0.2500000000000006
 40
0.3750000000000009
 40
0.3750000000000009
 40
0.5000000000000012
 40
0.5000000000000012
 40
0.7500000000000017
 40
0.7500000000000017
 40
0.8750000000000008
 40
0.8750000000000008
 40
1.0
 40
1.0
 40
1.0
 40
1.0
 10
-187.1627987068691
 20
-7.905608369075923
 30
0.0
 10
-187.49235738509
 20
-7.430886565248518
 30
0.0
 10
-187.7983166768912
 20
-6.903913870249164
 30
0.0
 10
-188.2241355770053
 20
-6.033219922332888
 30
0.0
 10
-188.3605448057227
 20
-5.729533020088484
 30
0.0
 10
-188.6225752197159
 20
-5.093803553030889
 30
0.0
 10
-188.7478912344713
 20
-4.762089991208842
 30
0.0
 10
-189.0997634774992
 20
-3.747829786054273
 30
0.0
 10
-189.3056206609729
 20
-3.038798298542158
 30
0.0
 10
-189.5779173687118
 20
-1.925156992035024
 30
0.0
 10
-189.662917522039
 20
-1.543666573435224
 30
0.0
 10
-189.8189471032617
 20
-0.776158390458203
 30
0.0
 10
-189.8902198501579
 20
-0.3894892656246454
 30
0.0
 10
-189.9554847021401
 20
0.0
 30
0.0
  0
SPLINE
  5
B1
330
1B
100
AcDbEntity
 67
     1
  8
0
  6
Continuous
 62
     7
370
    25
100
AcDbSpline
210
0.0
220
0.0
230
1.0
 70
    24
 71
     3
 72
    10
 73
     6
 74
     0
 42
0.000000001
 43
0.00000001
 40
0.0
 40
0.0
 40
0.0
 40
0.0
 40
0.5
 40
0.5
 40
1.0
 40
1.0
 40
1.0
 40
1.0
 10
-189.9554847021402
 20
0.0000000000000017
 30
0.0
 10
-189.9665546261556
 20
0.0000000000000017
 30
0.0
 10
-189.9496502538173
 20
0.0
 30
0.0
 10
-189.873772990132
 20
0.0
 30
0.0
 10
-189.8155604990052
 20
0.0
 30
0.0
 10
-189.7561484150623
 20
0.0
 30
0.0
  0
LWPOLYLINE
  5
B9
330
1B
100
AcDbEntity
 67
     1
  8
0
  6
Continuous
 62
     7
370
    25
100
AcDbPolyline
 90
        9
 70
   128
 43
0.0
 10
167.9019444462
 20
-21.7144513593
 10
167.9210741357
 20
-21.7341086947
 10
167.9394686821
 20
-21.74725457
 10
167.9564211931
 20
-21.7533837965
 10
167.9712801932
 20
-21.7522608314
 10
167.9834746595
 20
-21.7439288297
 10
167.9925359654
 20
-21.7287079856
 10
167.99811589
 20
-21.7071832275
 10
168.0
 20
-21.6801817399
  0
LWPOLYLINE
  5
BB
330
1B
100
AcDbEntity
 67
     1
  8
0
  6
Continuous
 62
     7
370
    25
100
AcDbPolyline
 90
        3
 70
   128
 43
0.0
 10
171.8229283808
 20
-20.0858361232
 10
171.0589362286
 20
-20.4328808618
 10
168.0
 20
-21.6801817399
  0
LWPOLYLINE
  5
BC
330
1B
100
AcDbEntity
 67
     1
  8
0
  6
Continuous
 62
     7
370
    25
100
AcDbPolyline
 90
        9
 70
   128
 43
0.0
 10
-167.9019444462
 20
-21.7144513593
 10
-167.9210741357
 20
-21.7341086947
 10
-167.9394686821
 20
-21.74725457
 10
-167.9564211931
 20
-21.7533837965
 10
-167.9712801932
 20
-21.7522608314
 10
-167.9834746595
 20
-21.7439288297
 10
-167.9925359654
 20
-21.7287079856
 10
-167.99811589
 20
-21.7071832275
 10
-168.0
 20
-21.6801817399
  0
LWPOLYLINE
  5
BE
330
1B
100
AcDbEntity
 67
     1
  8
0
  6
Continuous
 62
     7
370
    25
100
AcDbPolyline
 90
        3
 70
   128
 43
0.0
 10
168.0
 20
-21.6801817399
 10
166.3379858838
 20
-22.283300795
 10
165.8393588164
 20
-22.4579398363
  0
SPLINE
  5
C0
330
1B
100
AcDbEntity
 67
     1
  8
0
  6
Continuous
 62
     7
370
    25
100
AcDbSpline
210
0.0
220
0.0
230
1.0
 70
     8
 71
     3
 72
     9
 73
     5
 74
     0
 42
0.000000001
 43
0.00000001
 40
0.0
 40
0.0
 40
0.0
 40
0.0
 40
0.0627073150827329
 40
1.0
 40
1.0
 40
1.0
 40
1.0
 10
-151.4904412758725
 20
-26.1666785538167
 30
0.0
 10
-151.5424533580618
 20
-26.17156265251746
 30
0.0
 10
-152.3718953796294
 20
-26.24944987658865
 30
0.0
 10
-153.2740981805239
 20
-26.02054428888443
 30
0.0
 10
-154.1197262661141
 20
-25.80599275599259
 30
0.0
  0
SPLINE
  5
C1
330
1B
100
AcDbEntity
 67
     1
  8
0
  6
Continuous
 62
     7
370
    25
100
AcDbSpline
210
0.0
220
0.0
230
1.0
 70
     8
 71
     3
 72
     9
 73
     5
 74
     0
 42
0.000000001
 43
0.00000001
 40
0.0
 40
0.0
 40
0.0
 40
0.0
 40
0.0627073150827046
 40
1.0
 40
1.0
 40
1.0
 40
1.0
 10
151.4904412758725
 20
-26.16667855381671
 30
0.0
 10
151.5424533580618
 20
-26.17156265251746
 30
0.0
 10
152.3718953796293
 20
-26.24944987658867
 30
0.0
 10
153.2740981805238
 20
-26.02054428888446
 30
0.0
 10
154.119726266114
 20
-25.80599275599259
 30
0.0
  0
LINE
  5
C2
330
1B
100
AcDbEntity
 67
     1
  8
0
  6
Continuous
 62
     7
370
    25
100
AcDbLine
 10
-151.4904412759
 20
-26.1826274553
 30
0.0
 11
151.4904412759
 21
-26.1826274553
 31
0.0
  0
LINE
  5
C3
330
1B
100
AcDbEntity
 67
     1
  8
0
  6
Continuous
 62
     7
370
    25
100
AcDbLine
 10
-186.9811031031
 20
-8.0
 30
0.0
 11
186.9811031031
 21
-8.0
 31
0.0
  0
LINE
  5
C4
330
1B
100
AcDbEntity
 67
     1
  8
0
  6
Continuous
 62
     7
370
    25
100
AcDbLine
 10
-189.7561484151
 20
0.0
 30
0.0
 11
189.7561484151
 21
0.0
 31
0.0
  0
LINE
  5
C5
330
1B
100
AcDbEntity
 67
     1
  8
0
  6
Continuous
 62
     7
370
    25
100
AcDbLine
 10
-154.1197262661
 20
-25.805992756
 30
0.0
 11
154.1197262661
 21
-25.805992756
 31
0.0
  0
LINE
  5
C6
330
1B
100
AcDbEntity
 67
     1
  8
0
  6
Continuous
 62
     7
370
    25
100
AcDbLine
 10
-167.8665055451
 20
-21.729837141
 30
0.0
 11
-168.0
 21
-21.6801817399
 31
0.0
  0
ARC
  5
C7
330
1B
100
AcDbEntity
 67
     1
  8
0
  6
Continuous
 62
     7
370
    25
100
AcDbCircle
 10
-155.2393692293
 20
16.0297867132
 30
0.0
 40
39.81166058827329
100
AcDbArc
 50
217.127206486
 51
251.4542385069
  0
ARC
  5
C8
330
1B
100
AcDbEntity
 67
     1
  8
0
  6
Continuous
 62
     7
370
    25
100
AcDbCircle
 10
155.2393692293
 20
16.0297867132
 30
0.0
 40
39.81166058827309
100
AcDbArc
 50
288.5457614931
 51
322.872793514
  0
ARC
  5
C9
330
1B
100
AcDbEntity
 67
     1
  8
0
  6
Continuous
 62
     7
370
    25
100
AcDbCircle
 10
130.4058891172
 20
79.33149951
 30
0.0
 40
107.7786544373188
100
AcDbArc
 50
282.7104134697
 51
290.3588448507
  0
ARC
  5
CA
330
1B
100
AcDbEntity
 67
     1
  8
0
  6
Continuous
 62
     7
370
    25
100
AcDbCircle
 10
-130.4058891172
 20
79.3314995101
 30
0.0
 40
107.7786544373202
100
AcDbArc
 50
249.6411551493
 51
257.2895865303
  0
ARC
  5
CB
330
1B
100
AcDbEntity
 67
     1
  8
0
  6
Continuous
 62
     7
370
    25
100
AcDbCircle
 10
162.0161888919
 20
9.7393456098
 30
0.0
 40
30.71964169880037
100
AcDbArc
 50
313.4808351238
 51
324.9433054555
  0
ARC
  5
CC
330
1B
100
AcDbEntity
 67
     1
  8
0
  6
Continuous
 62
     7
370
    25
100
AcDbCircle
 10
-160.3525063304
 20
11.1510018003
 30
0.0
 40
32.89295013311276
100
AcDbArc
 50
215.4050079976
 51
234.0410099394
  0
VIEWPORT
  5
35E
330
1B
100
AcDbEntity
 67
     1
  8
0
100
AcDbViewport
 10
0.0
 20
0.0
 30
0.0
 40
205.6
 41
156.0
 68
     1
 69
     1
 12
-13.0911322451
 22
0.9264697138
 13
0.0
 23
0.0
 14
10.0
 24
10.0
 15
10.0
 25
10.0
 16
0.0
 26
0.0
 36
1.0
 17
0.0
 27
0.0
 37
0.0
 42
50.0
 43
0.0
 44
0.0
 45
27.8940017838
 50
0.0
 51
0.0
 72
   100
 90
   557152
  1

281
     0
 71
     1
 74
     0
110
0.0
120
0.0
130
0.0
111
1.0
121
0.0
131
0.0
112
0.0
122
1.0
132
0.0
 79
     0
146
0.0
  0
ENDSEC
  0
SECTION
  2
OBJECTS
  0
DICTIONARY
  5
C
330
0
100
AcDbDictionary
281
     1
  3
ACAD_GROUP
350
D
  3
ACAD_LAYOUT
350
1A
  3
ACAD_MLINESTYLE
350
17
  3
ACAD_PLOTSETTINGS
350
19
  3
ACAD_PLOTSTYLENAME
350
E
  3
ACAD_SCALELIST
350
47
  0
DICTIONARY
  5
D
102
{ACAD_REACTORS
330
C
102
}
330
C
100
AcDbDictionary
281
     1
  0
DICTIONARY
  5
1A
102
{ACAD_REACTORS
330
C
102
}
330
C
100
AcDbDictionary
281
     1
  3
_Back
350
26
  3
_Bottom
350
1B9
  3
_Dimetric
350
2EE
  3
_Front
350
103
  3
_Isometric
350
231
  3
_Left
350
17F
  3
_Top
350
1E
  3
_Trimetric
350
283
  3
Model
350
22
  0
DICTIONARY
  5
17
102
{ACAD_REACTORS
330
C
102
}
330
C
100
AcDbDictionary
281
     1
  3
Standard
350
18
  0
DICTIONARY
  5
19
102
{ACAD_REACTORS
330
C
102
}
330
C
100
AcDbDictionary
281
     1
  0
ACDBDICTIONARYWDFLT
  5
E
102
{ACAD_REACTORS
330
C
102
}
330
C
100
AcDbDictionary
281
     1
  3
Normal
350
F
100
AcDbDictionaryWithDefault
340
F
  0
DICTIONARY
  5
47
102
{ACAD_REACTORS
330
C
102
}
330
C
100
AcDbDictionary
281
     1
  3
A0
350
48
  3
A1
350
49
  3
A2
350
4A
  3
A3
350
4B
  3
A4
350
4C
  3
A5
350
4D
  3
A6
350
4E
  3
A7
350
4F
  3
A8
350
50
  3
A9
350
51
  3
B0
350
52
  3
B1
350
53
  3
B2
350
54
  3
B3
350
55
  3
B4
350
56
  3
B5
350
57
  3
B6
350
58
  3
B7
350
59
  3
B8
350
5A
  3
B9
350
5B
  3
C0
350
5C
  3
C1
350
5D
  3
C2
350
5E
  3
C3
350
5F
  3
C4
350
60
  3
C5
350
61
  3
C6
350
62
  3
C7
350
63
  3
C8
350
64
  3
C9
350
65
  3
D0
350
66
  3
D1
350
67
  3
D2
350
68
  0
LAYOUT
  5
26
102
{ACAD_REACTORS
330
1A
102
}
330
1A
100
AcDbPlotSettings
  1

  2
none_device
  4
ISO_A4_(210.00_x_297.00_MM)
  6

 40
7.5
 41
20.0
 42
7.5
 43
20.0
 44
210.0
 45
297.0
 46
0.0
 47
0.0
 48
0.0
 49
0.0
140
0.0
141
0.0
142
1.0
143
1.4782786112
 70
   688
 72
     1
 73
     1
 74
     1
  7

 75
     0
147
0.6764624695
148
189.9588068676
149
26.1883842689
100
AcDbLayout
  1
_Back
 70
     1
 71
     2
 10
0.0
 20
0.0
 11
0.0
 21
0.0
 12
0.0
 22
0.0
 32
0.0
 14
0.0
 24
0.0
 34
0.0
 15
0.0
 25
0.0
 35
0.0
146
0.0
 13
0.0
 23
0.0
 33
0.0
 16
1.0
 26
0.0
 36
0.0
 17
0.0
 27
1.0
 37
0.0
 76
     0
330
23
331
360
  0
LAYOUT
  5
1B9
102
{ACAD_REACTORS
330
1A
102
}
330
1A
100
AcDbPlotSettings
  1

  2
none_device
  4
ISO_A4_(210.00_x_297.00_MM)
  6

 40
7.5
 41
20.0
 42
7.5
 43
20.0
 44
210.0
 45
297.0
 46
0.0
 47
0.0
 48
0.0
 49
0.0
140
0.0
141
0.0
142
1.0
143
1.4782786112
 70
   688
 72
     1
 73
     1
 74
     1
  7

 75
     0
147
0.6764624695
148
189.9588068676
149
26.1883842689
100
AcDbLayout
  1
_Bottom
 70
     1
 71
     5
 10
0.0
 20
0.0
 11
0.0
 21
0.0
 12
0.0
 22
0.0
 32
0.0
 14
0.0
 24
0.0
 34
0.0
 15
0.0
 25
0.0
 35
0.0
146
0.0
 13
0.0
 23
0.0
 33
0.0
 16
1.0
 26
0.0
 36
0.0
 17
0.0
 27
1.0
 37
0.0
 76
     0
330
1B8
331
366
  0
LAYOUT
  5
2EE
102
{ACAD_REACTORS
330
1A
102
}
330
1A
100
AcDbPlotSettings
  1

  2
none_device
  4
ISO_A4_(210.00_x_297.00_MM)
  6

 40
7.5
 41
20.0
 42
7.5
 43
20.0
 44
210.0
 45
297.0
 46
0.0
 47
0.0
 48
0.0
 49
0.0
140
0.0
141
0.0
142
1.0
143
1.4782786112
 70
   688
 72
     1
 73
     1
 74
     1
  7

 75
     0
147
0.6764624695
148
189.9588068676
149
26.1883842689
100
AcDbLayout
  1
_Dimetric
 70
     1
 71
     8
 10
0.0
 20
0.0
 11
0.0
 21
0.0
 12
0.0
 22
0.0
 32
0.0
 14
0.0
 24
0.0
 34
0.0
 15
0.0
 25
0.0
 35
0.0
146
0.0
 13
0.0
 23
0.0
 33
0.0
 16
1.0
 26
0.0
 36
0.0
 17
0.0
 27
1.0
 37
0.0
 76
     0
330
2ED
331
36C
  0
LAYOUT
  5
103
102
{ACAD_REACTORS
330
1A
102
}
330
1A
100
AcDbPlotSettings
  1

  2
none_device
  4
ISO_A4_(210.00_x_297.00_MM)
  6

 40
7.5
 41
20.0
 42
7.5
 43
20.0
 44
210.0
 45
297.0
 46
0.0
 47
0.0
 48
0.0
 49
0.0
140
0.0
141
0.0
142
1.0
143
1.4782786112
 70
   688
 72
     1
 73
     1
 74
     1
  7

 75
     0
147
0.6764624695
148
189.9588068676
149
26.1883842689
100
AcDbLayout
  1
_Front
 70
     1
 71
     3
 10
0.0
 20
0.0
 11
0.0
 21
0.0
 12
0.0
 22
0.0
 32
0.0
 14
0.0
 24
0.0
 34
0.0
 15
0.0
 25
0.0
 35
0.0
146
0.0
 13
0.0
 23
0.0
 33
0.0
 16
1.0
 26
0.0
 36
0.0
 17
0.0
 27
1.0
 37
0.0
 76
     0
330
102
331
362
  0
LAYOUT
  5
231
102
{ACAD_REACTORS
330
1A
102
}
330
1A
100
AcDbPlotSettings
  1

  2
none_device
  4
ISO_A4_(210.00_x_297.00_MM)
  6

 40
7.5
 41
20.0
 42
7.5
 43
20.0
 44
210.0
 45
297.0
 46
0.0
 47
0.0
 48
0.0
 49
0.0
140
0.0
141
0.0
142
1.0
143
1.4782786112
 70
   688
 72
     1
 73
     1
 74
     1
  7

 75
     0
147
0.6764624695
148
189.9588068676
149
26.1883842689
100
AcDbLayout
  1
_Isometric
 70
     1
 71
     6
 10
0.0
 20
0.0
 11
0.0
 21
0.0
 12
0.0
 22
0.0
 32
0.0
 14
0.0
 24
0.0
 34
0.0
 15
0.0
 25
0.0
 35
0.0
146
0.0
 13
0.0
 23
0.0
 33
0.0
 16
1.0
 26
0.0
 36
0.0
 17
0.0
 27
1.0
 37
0.0
 76
     0
330
230
331
368
  0
LAYOUT
  5
17F
102
{ACAD_REACTORS
330
1A
102
}
330
1A
100
AcDbPlotSettings
  1

  2
none_device
  4
ISO_A4_(210.00_x_297.00_MM)
  6

 40
7.5
 41
20.0
 42
7.5
 43
20.0
 44
210.0
 45
297.0
 46
0.0
 47
0.0
 48
0.0
 49
0.0
140
0.0
141
0.0
142
1.0
143
1.4782786112
 70
   688
 72
     1
 73
     1
 74
     1
  7

 75
     0
147
0.6764624695
148
189.9588068676
149
26.1883842689
100
AcDbLayout
  1
_Left
 70
     1
 71
     4
 10
0.0
 20
0.0
 11
0.0
 21
0.0
 12
0.0
 22
0.0
 32
0.0
 14
0.0
 24
0.0
 34
0.0
 15
0.0
 25
0.0
 35
0.0
146
0.0
 13
0.0
 23
0.0
 33
0.0
 16
1.0
 26
0.0
 36
0.0
 17
0.0
 27
1.0
 37
0.0
 76
     0
330
17E
331
364
  0
LAYOUT
  5
1E
102
{ACAD_REACTORS
330
1A
102
}
330
1A
100
AcDbPlotSettings
  1

  2
none_device
  4
ISO_A4_(210.00_x_297.00_MM)
  6

 40
7.5
 41
20.0
 42
7.5
 43
20.0
 44
210.0
 45
297.0
 46
0.0
 47
0.0
 48
0.0
 49
0.0
140
0.0
141
0.0
142
1.0
143
1.4782786112
 70
   688
 72
     1
 73
     1
 74
     1
  7

 75
     0
147
0.6764624695
148
189.9588068676
149
26.1883842689
100
AcDbLayout
  1
_Top
 70
     1
 71
     1
 10
-219.524379092
 20
-37.275473853
 11
219.5243684396
 21
273.1630345027
 12
0.0
 22
0.0
 32
0.0
 14
-189.9588068676
 24
-26.1883842689
 34
0.0
 15
189.9587962153
 25
0.0
 35
0.0
146
0.0
 13
0.0
 23
0.0
 33
0.0
 16
1.0
 26
0.0
 36
0.0
 17
0.0
 27
1.0
 37
0.0
 76
     0
330
1B
331
35E
  0
LAYOUT
  5
283
102
{ACAD_REACTORS
330
1A
102
}
330
1A
100
AcDbPlotSettings
  1

  2
none_device
  4
ISO_A4_(210.00_x_297.00_MM)
  6

 40
7.5
 41
20.0
 42
7.5
 43
20.0
 44
210.0
 45
297.0
 46
0.0
 47
0.0
 48
0.0
 49
0.0
140
0.0
141
0.0
142
1.0
143
1.4782786112
 70
   688
 72
     1
 73
     1
 74
     1
  7

 75
     0
147
0.6764624695
148
189.9588068676
149
26.1883842689
100
AcDbLayout
  1
_Trimetric
 70
     1
 71
     7
 10
0.0
 20
0.0
 11
0.0
 21
0.0
 12
0.0
 22
0.0
 32
0.0
 14
0.0
 24
0.0
 34
0.0
 15
0.0
 25
0.0
 35
0.0
146
0.0
 13
0.0
 23
0.0
 33
0.0
 16
1.0
 26
0.0
 36
0.0
 17
0.0
 27
1.0
 37
0.0
 76
     0
330
282
331
36A
  0
LAYOUT
  5
22
102
{ACAD_REACTORS
330
1A
102
}
330
1A
100
AcDbPlotSettings
  1

  2
none_device
  4
ANSI_A_(11.00_x_8.50_Inches)
  6

 40
6.35
 41
19.05
 42
6.35000508
 43
19.05000254
 44
279.4
 45
215.9
 46
235.6685515803
 47
81.6588342699
 48
0.0
 49
0.0
140
0.0
141
0.0
142
0.3077113161
143
1.0
 70
  1696
 72
     0
 73
     0
 74
     0
  7

 75
     0
147
0.0179189148
148
-1300.4909072572
149
0.0
100
AcDbLayout
  1
Model
 70
     1
 71
     0
 10
0.0
 20
0.0
 11
420.0
 21
297.0
 12
0.0
 22
0.0
 32
0.0
 14
-26.1822644902
 24
-12.7470605723
 34
0.0
 15
0.0
 25
14.6
 35
0.0
146
0.0
 13
0.0
 23
0.0
 33
0.0
 16
1.0
 26
0.0
 36
0.0
 17
0.0
 27
1.0
 37
0.0
 76
     0
330
1F
331
29
  0
MLINESTYLE
  5
18
102
{ACAD_REACTORS
330
17
102
}
330
17
100
AcDbMlineStyle
  2
Standard
 70
     0
  3

 62
   256
 51
90.0
 52
90.0
 71
     2
 49
0.5
 62
   256
  6
BYLAYER
 49
-0.5
 62
   256
  6
BYLAYER
  0
ACDBPLACEHOLDER
  5
F
102
{ACAD_REACTORS
330
E
102
}
330
E
  0
SCALE
  5
48
102
{ACAD_REACTORS
330
47
102
}
330
47
100
AcDbScale
 70
     0
300
1:1
140
1.0
141
1.0
290
     1
  0
SCALE
  5
49
102
{ACAD_REACTORS
330
47
102
}
330
47
100
AcDbScale
 70
     0
300
1:2
140
1.0
141
2.0
290
     0
  0
SCALE
  5
4A
102
{ACAD_REACTORS
330
47
102
}
330
47
100
AcDbScale
 70
     0
300
1:4
140
1.0
141
4.0
290
     0
  0
SCALE
  5
4B
102
{ACAD_REACTORS
330
47
102
}
330
47
100
AcDbScale
 70
     0
300
1:5
140
1.0
141
5.0
290
     0
  0
SCALE
  5
4C
102
{ACAD_REACTORS
330
47
102
}
330
47
100
AcDbScale
 70
     0
300
1:8
140
1.0
141
8.0
290
     0
  0
SCALE
  5
4D
102
{ACAD_REACTORS
330
47
102
}
330
47
100
AcDbScale
 70
     0
300
1:10
140
1.0
141
10.0
290
     0
  0
SCALE
  5
4E
102
{ACAD_REACTORS
330
47
102
}
330
47
100
AcDbScale
 70
     0
300
1:16
140
1.0
141
16.0
290
     0
  0
SCALE
  5
4F
102
{ACAD_REACTORS
330
47
102
}
330
47
100
AcDbScale
 70
     0
300
1:20
140
1.0
141
20.0
290
     0
  0
SCALE
  5
50
102
{ACAD_REACTORS
330
47
102
}
330
47
100
AcDbScale
 70
     0
300
1:30
140
1.0
141
30.0
290
     0
  0
SCALE
  5
51
102
{ACAD_REACTORS
330
47
102
}
330
47
100
AcDbScale
 70
     0
300
1:40
140
1.0
141
40.0
290
     0
  0
SCALE
  5
52
102
{ACAD_REACTORS
330
47
102
}
330
47
100
AcDbScale
 70
     0
300
1:50
140
1.0
141
50.0
290
     0
  0
SCALE
  5
53
102
{ACAD_REACTORS
330
47
102
}
330
47
100
AcDbScale
 70
     0
300
1:100
140
1.0
141
100.0
290
     0
  0
SCALE
  5
54
102
{ACAD_REACTORS
330
47
102
}
330
47
100
AcDbScale
 70
     0
300
2:1
140
2.0
141
1.0
290
     0
  0
SCALE
  5
55
102
{ACAD_REACTORS
330
47
102
}
330
47
100
AcDbScale
 70
     0
300
4:1
140
4.0
141
1.0
290
     0
  0
SCALE
  5
56
102
{ACAD_REACTORS
330
47
102
}
330
47
100
AcDbScale
 70
     0
300
8:1
140
8.0
141
1.0
290
     0
  0
SCALE
  5
57
102
{ACAD_REACTORS
330
47
102
}
330
47
100
AcDbScale
 70
     0
300
10:1
140
10.0
141
1.0
290
     0
  0
SCALE
  5
58
102
{ACAD_REACTORS
330
47
102
}
330
47
100
AcDbScale
 70
     0
300
100:1
140
100.0
141
1.0
290
     0
  0
SCALE
  5
59
102
{ACAD_REACTORS
330
47
102
}
330
47
100
AcDbScale
 70
     0
300
1/128" = 1'-0"
140
0.0078125
141
12.0
290
     0
  0
SCALE
  5
5A
102
{ACAD_REACTORS
330
47
102
}
330
47
100
AcDbScale
 70
     0
300
1/64" = 1'-0"
140
0.015625
141
12.0
290
     0
  0
SCALE
  5
5B
102
{ACAD_REACTORS
330
47
102
}
330
47
100
AcDbScale
 70
     0
300
1/32" = 1'-0"
140
0.03125
141
12.0
290
     0
  0
SCALE
  5
5C
102
{ACAD_REACTORS
330
47
102
}
330
47
100
AcDbScale
 70
     0
300
1/16" = 1'-0"
140
0.0625
141
12.0
290
     0
  0
SCALE
  5
5D
102
{ACAD_REACTORS
330
47
102
}
330
47
100
AcDbScale
 70
     0
300
3/32" = 1'-0"
140
0.09375
141
12.0
290
     0
  0
SCALE
  5
5E
102
{ACAD_REACTORS
330
47
102
}
330
47
100
AcDbScale
 70
     0
300
1/8" = 1'-0"
140
0.125
141
12.0
290
     0
  0
SCALE
  5
5F
102
{ACAD_REACTORS
330
47
102
}
330
47
100
AcDbScale
 70
     0
300
3/16" = 1'-0"
140
0.1875
141
12.0
290
     0
  0
SCALE
  5
60
102
{ACAD_REACTORS
330
47
102
}
330
47
100
AcDbScale
 70
     0
300
1/4" = 1'-0"
140
0.25
141
12.0
290
     0
  0
SCALE
  5
61
102
{ACAD_REACTORS
330
47
102
}
330
47
100
AcDbScale
 70
     0
300
3/8" = 1'-0"
140
0.375
141
12.0
290
     0
  0
SCALE
  5
62
102
{ACAD_REACTORS
330
47
102
}
330
47
100
AcDbScale
 70
     0
300
1/2" = 1'-0"
140
0.5
141
12.0
290
     0
  0
SCALE
  5
63
102
{ACAD_REACTORS
330
47
102
}
330
47
100
AcDbScale
 70
     0
300
3/4" = 1'-0"
140
0.75
141
12.0
290
     0
  0
SCALE
  5
64
102
{ACAD_REACTORS
330
47
102
}
330
47
100
AcDbScale
 70
     0
300
1" = 1'-0"
140
1.0
141
12.0
290
     0
  0
SCALE
  5
65
102
{ACAD_REACTORS
330
47
102
}
330
47
100
AcDbScale
 70
     0
300
1-1/2" = 1'-0"
140
1.5
141
12.0
290
     0
  0
SCALE
  5
66
102
{ACAD_REACTORS
330
47
102
}
330
47
100
AcDbScale
 70
     0
300
3" = 1'-0"
140
3.0
141
12.0
290
     0
  0
SCALE
  5
67
102
{ACAD_REACTORS
330
47
102
}
330
47
100
AcDbScale
 70
     0
300
6" = 1'-0"
140
6.0
141
12.0
290
     0
  0
SCALE
  5
68
102
{ACAD_REACTORS
330
47
102
}
330
47
100
AcDbScale
 70
     0
300
1'-0" = 1'-0"
140
12.0
141
12.0
290
     0
  0
ENDSEC
  0
EOF
